Oops, an error
Loading. Please wait.

Talihina Sky Tab

version 1
version 1

Whole song

42,887 views 90 this week
no commentswrite comment
1 2 3 4 5
excellent!
x 7
add to favorites
launch autoscroll
font size
0
reset
how to read this tab
guitar tuner
Autoscroll
slow
fast
+/-
esc
set tempo
stop
Help us to improve Ultimate-Guitar.com Take our survey!
×
Author
Difficulty
novice
This song is easy to work out the order and strumming pattern. have fun!

Guitar 2 - part 1 (play for intro, verse, outro and solo)

-2-2--2-2-2--2-2-2---2-2--2-2--2-2-2--2-2-2--2-2-|
-3-3--3-3-3--3-3-3---3-3--3-3--3-3-3--3-3-3--3-3-|
-2-2--2-2-2--2-2-2---2-2--4-4--4-4-4--4-4-4--4-4-|
-0-0--0-0-0--0-0-0---0-0--4-4--4-4-4--4-4-4--4-4-|
--------------------------2-2--2-2-2--2-2-2--2-2-|
-------------------------------------------------|

Guitar 2 - part 2 (play for chorus)

-3-3--3-3-3-3-3-3-3---0-0--0-0-0-0-0-0-0-|
-0-0--0-0-0-0-0-0-0---2-2--2-2-2-2-2-2-2-|  x2
-0-0--0-0-0-0-0-0-0---2-2--2-2-2-2-2-2-2-|
-0-0--0-0-0-0-0-0-0---2-2--2-2-2-2-2-2-2-|
-2-2--2-2-2-2-2-2-2---0-0--0-0-0-0-0-0-0-|
-3-3--3-3-3-3-3-3-3----------------------|


Guitar 1 - Part 1 (play for verse)

-------9----12----9----------------------------|
---10---10----10---10-------7----10----7-------|
-11--11---11----11---11---7---7----7-----7-----|
-------------------------9-9----9----9-----9---|  x4
-----------------------------------------------|
-----------------------------------------------|

Guitar 1 - Part 2 (play for chorus)

-3-3--3-3-3-3-3-3-3---0-0--0-0-0-0-0-0-0-|
-0-0--0-0-0-0-0-0-0---2-2--2-2-2-2-2-2-2-|  x2
-0-0--0-0-0-0-0-0-0---2-2--2-2-2-2-2-2-2-|
-0-0--0-0-0-0-0-0-0---2-2--2-2-2-2-2-2-2-|
-2-2--2-2-2-2-2-2-2---0-0--0-0-0-0-0-0-0-|
-3-3--3-3-3-3-3-3-3----------------------|

Guitar 1 - Part 3 (play for solo and outro)

----------7--5-------------7--5---|
--7--5-5---5--5----7--5-5---5--5--|
-7-7----7---7--7--7-7----7---7--7-|
----------------------------------|
----------------------------------|
----------------------------------|

----------7--5------------7-5------5~~~-|
--7--5-5---5--5----7--5-5----5-7-5------|
-7-7----7---7--7--7-7----7----7---7-----|
----------------------------------------|
----------------------------------------|
----------------------------------------|
Suggest correction
comments
print report bad tab
guest
You may want to rate the tab now too:
select rating
Please do not post tabs as comments. Select "correction" instead!