Oops, an error
Loading. Please wait.

The Immortals Tab

version 1
version 1

Whole song

Interactive

19 views 1 this week
no commentswrite comment
1 2 3 4 5
2 more votes to show rating
add to favorites
launch autoscroll
font size
0
reset
how to read this tab
guitar tuner
Autoscroll
slow
fast
+/-
esc
set tempo
stop
Help us to improve Ultimate-Guitar.com Take our survey!
×
Author
*************************************************************************************************************

                                        Kings Of Leon - The Immortals
                                      Album: Come Around Sundown [2010]

*************************************************************************************************************

Tuning: Standard, EADGBe



[Intro]

   Lead Guitar

e|---7---7---7-7-----7---7---7-----7---7---7-7-----7---7---7---|-------11-------11---|
B|-----9---9-----------9---9---------9---9-----------9---9-----|---9---12---9---12---|
G|-------------------------------------------------------------|---9--------9--------|
D|-------------------------------------------------------------|---------------------|
A|-------------------------------------------------------------|---------------------|
E|-------------------------------------------------------------|---------------------|


   Rhythm Guitar

e|---------------------------|
B|---------------------------|
G|---1-----------------------|
D|---2-----------6-----------|
A|---2-----------6-----------|
E|---0---(28x)---4---(28x)---|


e|-----------------------------------------------------------------------|
B|-----------------------------------------------------------------------|
G|-----------------------------------------------------------------------|
D|-----------------------------------------------------------------------|
A|---(x)-(x)-(4x)-(x)-(4x)-(x)-(x)-(x)-(4)-(x)-(x)-(4)-(x)-(4)-(x)-(x)---|
E|-----------------------------------------------------------------------|


e|-----------------------------------------------------------|
B|-----------------------------------------------------------|
G|-----------------------------------------------------------|
D|-----------------------------------------------------------|
A|---(x)-(x)-(4x)-(x)-(4x)-(x)-(x)-(x)-(4)-(x)-(x)-(x)-(2)---|
E|-----------------------------------------------------------|   (4x)



[Verse 1]

   Lead Guitar

e|-----------------|
B|---9---10---12---|
G|---9---9----9----|
D|-----------------|
A|-----------------|
E|-----------------|   (2x)


   Rhythm Guitar

e|-----------------------------------------------------------------------|
B|-----------------------------------------------------------------------|
G|-----------------------------------------------------------------------|
D|-----------------------------------------------------------------------|
A|---(x)-(x)-(4x)-(x)-(4x)-(x)-(x)-(x)-(4)-(x)-(x)-(4)-(x)-(4)-(x)-(x)---|
E|-----------------------------------------------------------------------|


e|-----------------------------------------------------------|
B|-----------------------------------------------------------|
G|-----------------------------------------------------------|
D|-----------------------------------------------------------|
A|---(x)-(x)-(4x)-(x)-(4x)-(x)-(x)-(x)-(4)-(x)-(x)-(x)-(2)---|
E|-----------------------------------------------------------|   (8x)




[Chorus]

   Lead Guitar

e|---------------------------------------------------------------------|
B|---5---(16x)-----7---(8x)-----9---(8x)-----4---(16x)-----0---(16x)---|
G|---------------------------------------------------------------------|
D|---------------------------------------------------------------------|
A|---------------------------------------------------------------------|
E|---------------------------------------------------------------------|   (3x)


   Rhythm Guitar

e|-----------------------------------------|
B|-----------------------------------------|
G|---1-------------------------------------|
D|---2-------------6------------7----------|
A|---2-------------6------------7----------|
E|---0---(16x)-----4---(8x)-----5---(8x)---|   (3x)


 
   Additional Guitar

e|------------------------------------------|
B|------------------------------------------|
G|------------------------------------------|
D|---9h11---7h9---6h7---4h6---2h4---1---2---|
A|------------------------------------------|
E|------------------------------------------|   (2x)



[Verse 2]

   Lead Guitar

e|-------11---|---------------------------------|
B|---9---12---|---9---10---12-----9---10---12---|
G|---9--------|---9---9----9------9---9----9----|
D|------------|---------------------------------|
A|------------|---------------------------------|
E||-----------|---------------------------------|


   Rhythm Guitar

e|-----------------------------------------------------------------------|
B|-----------------------------------------------------------------------|
G|-----------------------------------------------------------------------|
D|-----------------------------------------------------------------------|
A|---(x)-(x)-(4x)-(x)-(4x)-(x)-(x)-(x)-(4)-(x)-(x)-(4)-(x)-(4)-(x)-(x)---|
E|-----------------------------------------------------------------------|


e|-----------------------------------------------------------|
B|-----------------------------------------------------------|
G|-----------------------------------------------------------|
D|-----------------------------------------------------------|
A|---(x)-(x)-(4x)-(x)-(4x)-(x)-(x)-(x)-(4)-(x)-(x)-(x)-(2)---|
E|-----------------------------------------------------------|   (6x)




[Chorus]

   Lead Guitar

e|---------------------------------------------------------------------|
B|---5---(16x)-----7---(8x)-----9---(8x)-----4---(16x)-----0---(16x)---|
G|---------------------------------------------------------------------|
D|---------------------------------------------------------------------|
A|---------------------------------------------------------------------|
E|---------------------------------------------------------------------|   (5x)


   Rhythm Guitar

e|-----------------------------------------|
B|-----------------------------------------|
G|---1-------------------------------------|
D|---2-------------6------------7----------|
A|---2-------------6------------7----------|
E|---0---(16x)-----4---(8x)-----5---(8x)---|   (5x)


 
   Additional Guitar

e|------------------------------------------|
B|------------------------------------------|
G|------------------------------------------|
D|---9h11---7h9---6h7---4h6---2h4---1---2---|
A|------------------------------------------|
E|------------------------------------------|   (4x)




[Bridge]

   Lead Guitar

e|-------11---|
B|---9---12---|
G|---9--------|
D|------------|
A|------------|
E||-----------|   (2x)


   Rhythm Guitar

e|------------------------------------------|
B|------------------------------------------|
G|---6-------------4------------8-----------|
D|------------------------------------------|
A|---4---(14x)-----2---(2x)-----6---(16x)---|
E|------------------------------------------|


   Lead Guitar

e|---------------------------------------------------------------------|
B|---5---(16x)-----7---(8x)-----9---(8x)-----4---(16x)-----0---(16x)---|
G|---------------------------------------------------------------------|
D|---------------------------------------------------------------------|
A|---------------------------------------------------------------------|
E|---------------------------------------------------------------------|   (2x)


   Rhythm Guitar

e|-----------------------------------------|
B|-----------------------------------------|
G|---1-------------------------------------|
D|---2-------------6------------7----------|
A|---2-------------6------------7----------|
E|---0---(16x)-----4---(8x)-----5---(8x)---|   (2x)


 
   Additional Guitar

e|------------------------------------------|
B|------------------------------------------|
G|------------------------------------------|
D|---9h11---7h9---6h7---4h6---2h4---1---2---|
A|------------------------------------------|
E|------------------------------------------|   (1x)




[Outro]

   Lead Guitar

e|---------------------------------------------------------------------|
B|---5---(16x)-----7---(8x)-----9---(8x)-----4---(16x)-----0---(16x)---|
G|---------------------------------------------------------------------|
D|---------------------------------------------------------------------|
A|---------------------------------------------------------------------|
E|---------------------------------------------------------------------|   (4x)


   Rhythm Guitar

e|-----------------------------------------|
B|-----------------------------------------|
G|---1-------------------------------------|
D|---2-------------6------------7----------|
A|---2-------------6------------7----------|
E|---0---(16x)-----4---(8x)-----5---(8x)---|   (4x)


 
   Additional Guitar

e|------------------------------------------|
B|------------------------------------------|
G|------------------------------------------|
D|---9h11---7h9---6h7---4h6---2h4---1---2---|
A|------------------------------------------|
E|------------------------------------------|   (4x)


   Solo Guitar

e|------------------------------------------------------------------------------------|
B|---12h14p12---12---------14b---14----------12h14p12---12----------------------------|
G|--------------------13--------------13---------------------13---13---13---11---11---|
D|------------------------------------------------------------------------------------|
A|------------------------------------------------------------------------------------|
E|------------------------------------------------------------------------------------|


e|----------------------------------------------------------------------|
B|---12h14p12---12---------14b---14----------12h14p12---12--------------|
G|--------------------13--------------13---------------------13---~11---|
D|----------------------------------------------------------------------|
A|----------------------------------------------------------------------|
E|----------------------------------------------------------------------|




*************************************************************************************************************

| x   Dead note
| g   Grace note
|(n)  Ghost note
| h   Hammer-on
| p   Pull-off
| r   Release
| >   Accented note
| t   Tapping
| b   Bend
| br  Bend release
| pb  Pre-bend
| pbr Pre-bend release
| /   Slide up
| \   Slide down
| ~   Vibrato
| s   Slap
| P   Pop
| PM  Palm mute
| TR  Trill
| N   Tremolo

*************************************************************************************************************
Suggest correction
Give kudos to tab author, rate the tab!
1 2 3 4 5
comments
print report bad tab
guest
You may want to rate the tab now too:
select rating
Wanna post a correction for this tab? Suggest correction