Oops, an error
Loading. Please wait.

Tonight tab

version 1
version 1

Whole song

Interactive

13,871 views 18 this week
2 commentsread comments
1 2 3 4 5
x 17
add to favorites
×
Save as Personal and add changes to this tab that will be seen only by you. Learn more ›
×
You can save this tab as Personal to edit and correct it or add notes. All changes will be seen only by you. Learn more »
launch autoscroll
font size
0
reset
how to read this tab
guitar tuner
edit
Autoscroll
slow
fast
+/-
esc
set tempo
stop
Author
Difficulty
-----------------------------------------------------------------------------
                           Tonight - Kings of Leon
-----------------------------------------------------------------------------
Tabbed by: cdberger
E-mail: cdberger98@gmail.com

Tuning: Standard

I also tabbed Work on Me, to see that, use this link:

http://tabs.ultimate-guitar.com/k/kings_of_leon/work_on_me_tab.htm

Intro

e|-------------------------------------------------------------------------|
B|-------------------------------------------------------------------------|
G|-------------------------------------------------------------------------|
D|-------2-2-2-------2-2-2-------2-2-2-------2-2-2-------1-1-1-------1-1-1-|
A|-------------------------4-4-4-------4-4-4-------2-2-2-------2-2-2-------|
E|-0-0-0-------0-0-0-------------------------------------------------------|

--------------------------|
--------------------------|
--------------------------|
--------------------1-1-1-|
--0-0-0-4-4-4-2-2-2-------|
--------------------------|

e|------------------------------------------------------------------------|
B|----10----10---9---9---7---7---9---9----12----12----10----10--5----5--7-|
G|-11----11----9---9---8---8---9---9---13----13----11----11-----4--6------|
D|------------------------------------------------------------------------|
A|------------------------------------------------------------------------|
E|------------------------------------------------------------------------|

Verse 1

(Same riff as intro)

e|------------------------------------------------------------------------|
B|----10----10---9---9---7---7---9---9----12----12----10----10--5----5--7-|
G|-11----11----9---9---8---8---9---9---13----13----11----11-----4--6------|
D|------------------------------------------------------------------------|
A|------------------------------------------------------------------------|
E|------------------------------------------------------------------------|

Chorus (Not sure if the B string notes are needed but you can play them to
keep yourself in tempo)

e|-12----12----11----11-----9----9----11----11----|
B|----12----12----12----12----12---12----12----12-|  [3x]
G|------------------------------------------------|
D|------------------------------------------------|
A|------------------------------------------------|
E|------------------------------------------------|

e|-9----9----11----11----12----12----14-|
B|---12---12----12----12----12----12----|
G|--------------------------------------|
D|--------------------------------------|
A|--------------------------------------|
E|--------------------------------------|

Verse 2

(Same as verse 1)

e|--------------------------------------------------------------------------|
B|--------------------------------------------------------------------------|
G|-9-9-9-8-8-8-8-9-9-9-8-8-8-8-11-11-11-8-8-8-8-9-9-9---------9-9-9-8-8-8-8-|
D|----------------------------------------------------9-9-9-9---------------|
A|--------------------------------------------------------------------------|
E|--------------------------------------------------------------------------|

-----------------------------|
-------------------5----5--7-|
--11-11-11-8-8-8-8-4--6------|
-----------------------------|
-----------------------------|
-----------------------------|

Chorus

Interlude

e|-12-|
B|----| [Play this note alot]
G|----|
D|----|
A|----|
E|----|

e|------------------------------------------------------------|
B|------------------------------------------------------------|
G|------------------------------------------------------------|
D|------------------------------------------------------------|
A|------------------------------------------------------------|
E|-2-2-2-2-2-2-2-2--5-5-5-5-5-5-5-5--12-12-12-12-12-12-12-12--|

--------------------------|
--------------------------|
--------------------------|
--------------------------|
--------------------------|
--14-14-14-12-12-12-12-12-|

e|-14--16---------|
B|--------16b--14-|
G|----------------|
D|----------------|
A|----------------|
E|----------------|

e|----------|
B|-16b--14b-| [Listen to song, these are played rapidly]
G|----------|
D|----------|
A|----------|
E|----------|

Chorus

Outro

            
            
Suggest correction
Creating personal tab
Creating personal tab
You can edit any tab online and save it as your Personal.

You can edit, replace or remove any tab part or add personal notes – all changes will be seen only by you.

Personal tabs can be accessed anytime from any device, even offline.
Learn more »
comments
print report bad tab
2 comments total.
0 reply
Gerrad1234 10 Oct 29, 2013 08:27 AM

Thanks for that ?

0 reply
bailey24 20 Sep 07, 2017 02:33 PM

Spot on tab with easy to play notes, thanks man

guest
You may want to rate the tab now too:
select rating
Wanna post a correction for this tab? Suggest correction