Oops, an error
Loading. Please wait.

True Love Way bass

version 3
version 3

Whole song

Interactive

2,982 views 3 this week
no commentswrite comment
1 2 3 4 5
1 last vote to show rating
add to favorites
×
Save as Personal and add changes to this tab that will be seen only by you. Learn more ›
×
You can save this tab as Personal to edit and correct it or add notes. All changes will be seen only by you. Learn more »
launch autoscroll
font size
0
reset
guitar tuner
backing track
0:00
0:00
edit
Autoscroll
slow
fast
+/-
esc
set tempo
stop
-------------------------------------------------------------------------------
			     True Love Way - Kings of Leon
-------------------------------------------------------------------------------

Tabbed By : Thunderbird_fan

Tuning:standard (E,A,D,G)

I've seen the other tabs and they're pretty good but not correct on some areas.
Im pretty sure this version is correct from start to finish.

Intro:(no bass, harmonics played by rhythm guitar)

G|--------------------|------------------|----------------|---------------------|
D|--------------------|------------------|----------------|---------------------|
A|--------W-----------|---------W--------|-------W--------|-------W-------------|
E|--------------------|------------------|----------------|---------------------|

G|--------------------|------------------|----------------|---------------------|
D|--------------------|------------------|----------------|---------------------|
A|--------W-----------|---------W--------|-------W--------|-------W-------------|
E|--------------------|------------------|----------------|---------------------|

Chorus:

  D (10 are tens)   D                  B        B        G        G        B       B
G|-----------------|------------------|--------|--------|--------|--------|--------|--------|
D|-----------------|------------------|--------|--------|--------|--------|--------|--------|
A|-----------------|------------------|--------|--------|--------|--------|--------|--------|
E|-1010101010101010|101010101010101010|77777777|77777777|33333333|33333333|77777777|77777777|


Verse:

  D (10 are tens)   B          B        G
G|-----------------|----------|--------|----------|
D|-----------------|----------|--------|----------|
A|-----------------|----------|--------|----------|
E|-1010101010101010|10\7777777|77777777|7\3333333/| x4

Chorus:

 D (10 are tens)   D                  B        B        G        G        B       B
G|-----------------|------------------|--------|--------|--------|--------|--------|--------|
D|-----------------|------------------|--------|--------|--------|--------|--------|--------|
A|-----------------|------------------|--------|--------|--------|--------|--------|--------|
E|-1010101010101010|101010101010101010|77777777|77777777|33333333|33333333|77777777|77777777|

Verse:

  D (10 are tens)   B          B        G
G|-----------------|----------|--------|----------|
D|-----------------|----------|--------|----------|
A|-----------------|----------|--------|----------|
E|-1010101010101010|10\7777777|77777777|7\3333333/| x4

Chorus:

 D (10 are tens)   D                  B        B        G        G        B       B
G|-----------------|------------------|--------|--------|--------|--------|--------|--------|
D|-----------------|------------------|--------|--------|--------|--------|--------|--------|
A|-----------------|------------------|--------|--------|--------|--------|--------|--------|

x2

Bridge:

  B       G  A      D
G|-----------------------------|
D|-----------------------------|
A|-----------------------------|
E|-7------3--5------10---------| x3

  B       G  A
G|---------------|
D|---------------|
A|---------------|
E|-7------3--5---|

Guitar Solo: (Last Bar is popped)
                                                                                     P P P  P
G|-----------------|----------------|--------|--------|--------|--------|--------|---4---7p4--|
D|-----------------|----------------|--------|--------|--------|--------|--------|-----4-----4|
A|-----------------|----------------|--------|--------|--------|--------|22222222|2-----------|
E|-1010101010101010|1010101010101010|77777777|77777777|33333333|33333333|--------|------------|


G|-----7-----------|-----7-----------|-----4----------|-----4-----------|
D|-----------7-----|-----------7-----|-----------4----|-----------4-----|
A|---5---5---------|---5---5---------|---2---2--------|---2---2---------|
E|-----------------|-----------------|----------------|-----------------|
   1 + 2 + 3 + 4 + | 1 + 2 + 3 + 4 + | 1 + 2 + 3 + 4 +| 1 + 2 + 3 + 4 + |

                                                            P P P   P
G|-----------------|----------------|-----4-----------|-----4---7p4-----|
D|-----5-----------|-----5----------|-----------4-----|-------4-----4---|
A|-----------5-----|-----------5----|---2---2---------|-----------------|
E|---3---3---------|---3---3--------|-----------------|-----------------|
   1 + 2 + 3 + 4 + | 1 + 2 + 3 + 4 +| 1 + 2 + 3 + 4 + | 1 + 2 + 3 + 4 + | x2

Outro

G|--------------------|------------------|----------------|---------------------|
D|--------------------|------------------|----------------|---------------------|
A|--------W-----------|---------W--------|-------W--------|-------W-------------|
E|--------------------|------------------|----------------|---------------------|

G|--------------------|------------------|----------------|---------------------|
D|--------------------|------------------|----------------|---------------------|
A|--------W-----------|---------W--------|-------W--------|-------W-------------|
E|--------------------|------------------|----------------|---------------------|

G|----4-----|
D|---------4|
A|--2---2---|
E|----------| x17

I got a bit lazy at the end and didnt put the chords above but im pretty sure this is 
correct tab for a beatiful song.

Any complaints or suggestions can you please post comments on this tab

| /  slide up
| \  slide down
| h  hammer-on
| p  pull-off
| ~  vibrato
| +  harmonic
| x  Mute note
===============================================================================

            
            
Suggest correction
Creating personal tab
Creating personal tab
You can edit any tab online and save it as your Personal.

You can edit, replace or remove any tab part or add personal notes – all changes will be seen only by you.

Personal tabs can be accessed anytime from any device, even offline.
Learn more »
Give kudos to tab author, rate the tab!
1 2 3 4 5
comments
print report bad tab
guest
You may want to rate the tab now too:
select rating
Wanna post a correction for this tab? Suggest correction