Oops, an error
Loading. Please wait.
We have an official Use Somebody tab made by UG professional guitarists. Check out the tab »
×
23,706 views 6 this week
5 commentsread comments
1 2 3 4 5
x 6
add to favorites
×
Save as Personal and add changes to this tab that will be seen only by you. Learn more ›
×
You can save this tab as Personal to edit and correct it or add notes. All changes will be seen only by you. Learn more »
launch autoscroll
font size
0
reset
how to read this tab
guitar tuner
backing track
0:00
0:00
edit
Autoscroll
slow
fast
+/-
esc
set tempo
stop
Hey guys, ive been looking at the other tabs and no one seems to have the lead
part correct, so ive decided to do that.
Please rate and comment.

INTRO

e|--00000000-|X12
B|--55555555-|
G|--55555555-|
D|-----------|
A|-----------|
E|-----------|

e|--0-0-0-0-0-0-0-0--0---0-0---0-------|
B|--1212121313131515-15b-1312--1~~~~~~-|
G|-------------------------------------|
D|-------------------------------------|
A|-------------------------------------|
E|-------------------------------------|

Really Emphasize the bend

Verse 1

"someone like you"

come in on the "you"

e|-0--00--000-|x16 You can play these palm muted or not, i choose not to but
B|-1--11--111-|    up to you.
G|------------|
D|------------|
A|------------|
E|------------|

Chorus 1

e|--00000000-|X8
B|--55555555-|
G|--55555555-|
D|-----------|
A|-----------|
E|-----------|

e|--0-0-0-0-0-0-0-0---------------------------------|
B|--1212121313131515x2------------------------------|
G|---------------------1414141212121212-77755555----|
D|--------------------------------------------------|
A|--------------------------------------------------|
E|--------------------------------------------------|

e|--0-0-0-0-0-0-0-0--0--0-0-----------------------------|
B|--1212121313131515-15b1312----------------------------|
G|---------------------------1414141212121212-77755555--|
D|------------------------------------------------------|
A|------------------------------------------------------|
E|------------------------------------------------------|

Verse 2

Rest for 2nd verse while bass and drums play

"I hope it gonna make you notice"

start on "make"

e|-0--00--000-|x8
B|-1--11--111-|
G|------------|
D|------------|
A|------------|
E|------------|

Chorus 2

e|--00000000-|X8
B|--55555555-|
G|--55555555-|
D|-----------|
A|-----------|
E|-----------|

e|--0-0-0-0-0-0-0-0---------------------------------|
B|--1212121313131515x2------------------------------|
G|---------------------1414141212121212-77755555----|
D|--------------------------------------------------|
A|--------------------------------------------------|
E|--------------------------------------------------|

e|--0-0-0-0-0-0-0-0--0--0-0-----------------------------|
B|--1212121313131515-15b1312----------------------------|
G|---------------------------1414141212121212-77755555--|
D|------------------------------------------------------|
A|------------------------------------------------------|
E|------------------------------------------------------|

Bridge

     D      F#     D     F#    B
e|---------------------------------|
B|---------------------------------|
G|---------------------------------|
D|---9------4-----9------4-----9\--|
A|---9------4-----9------4-----9\--|
E|---10x16--2x16--10x16--2x8---7\--|

Solo

e|--------------------------------------------|x4
B|----------------------666\5---5-6-5---------|
G|---9999-12121212---------------------7-5----|
D|----------------101010----------------------|
A|--------------------------------------------|
E|--------------------------------------------|

e|----------------------------------|
B|----------------------666--3~~~~--|
G|---9999-12121212------------------|
D|----------------101010------------|
A|----------------------------------|
E|----------------------------------|

Thats all folks. any questions, criticism, hints for a good first date lol
bang_yo_mamma@hotmail.com.

Cheers Thunderbird_Fan.

            
            
Suggest correction
Creating personal tab
Creating personal tab
You can edit any tab online and save it as your Personal.

You can edit, replace or remove any tab part or add personal notes – all changes will be seen only by you.

Personal tabs can be accessed anytime from any device, even offline.
Learn more »
comments
print report bad tab
5 comments total. Showing first comments.
0 reply
Thunderbird_Fan 83 Jul 12, 2009 07:18 PM

the bridge is suppose to be

D F# D F# B
e|---------------------------------|
B|----------------------------------|
G|----------------------------------|
D|---12------4----12------4-----9\--|
A|---12------4----12------4-----9\--|
E|---10x16--2x16--10x16---2x8---7\--|

sorry i messed up then but i dont know how to edit my tabs pls help

-1 reply
Nundies 111 Jul 12, 2009 07:32 PM

Now i've rated your tab, and you're clearly wrong. Learn to play something easier like a recorder maybe then you'll get 2 stars.

0 reply
Thunderbird_Fan 83 Sep 10, 2009 10:07 PM

dude ive seen yours and its an embarisment to kings of leon so shut your black mouth nigger

guest
You may want to rate the tab now too:
select rating
Wanna post a correction for this tab? Suggest correction