Oops, an error
Loading. Please wait.

Wait For Me Tab

version 1
version 1

Whole song

Interactive

41,260 views 90 this week
no commentswrite comment
1 2 3 4 5
x 13
add to favorites
launch autoscroll
font size
0
reset
how to read this tab
guitar tuner
Autoscroll
slow
fast
+/-
esc
set tempo
stop
Help us to improve Ultimate-Guitar.com Take our survey!
×
Author
Difficulty
novice
Artist: Kings of leon

Song: Wait for me 

[Intro and Verse]

E|-----------------------------------------------------------------------|
B|-----------------------------------------------------------------------|
G|-----------------------------------------------------------------------|
D|-------0---------0-----(x2)-------0---------0-----------0---------0----|
A|----4-----4----4----4----------4-----4----4----4-----4-----4----4----4-|
E|-5-----------5--------------2-----------2---------0-----------0--------|

[Chorus]

E|-------------------------------------------------------------------------|
B|-------5---------5-----------5---------5-----------5---------5-----------|
G|----6-----6----6----6-----6-----6----6----6-----6-----6----6----6--------|
D|-7-----------7-----------------------------------------------------(X2)--|
A|-----------------------4-----------4-------------------------------------|
E|---------------------------------------------0-----------0---------------|

[Bridge]

E|---------------------------------------------------------------------------|
B|-7-------------------------------------------------------------------------|
G|-7---x-9----11----6---x-7-----------7---x-9----11----9-9-9-9-9-9-9-9-------|
D|-7---x-9----11----7---x-7----4------7---x-9----11----9-9-9-9-9-9-9-9(X2)-0-|
A|-5---x-7----9-----7---x-5----4------5---x-7----9-----7-7-7-7-7-7-7-7-----4-|
E|------------------5----------2-----------------------0-0-0-0-0-0-0-0-----5-|



************************************

| x  Dead note 

************************************
Suggest correction
comments
print report bad tab
guest
You may want to rate the tab now too:
select rating
Wanna post a correction for this tab? Suggest correction