Oops, an error
Loading. Please wait.

Wait For Me tab

version 2
version 2

Whole song

Interactive

34,152 views 108 this week
7 commentsread comments
1 2 3 4 5
x 24
add to favorites
×
Save as Personal and add changes to this tab that will be seen only by you. Learn more ›
×
You can save this tab as Personal to edit and correct it or add notes. All changes will be seen only by you. Learn more »
launch autoscroll
font size
0
reset
how to read this tab
guitar tuner
edit
Autoscroll
slow
fast
+/-
esc
set tempo
stop
Author
Difficulty
Tabbed By: yulizavala22
Kings Of Leon
Mechanical Bull
Wait For Me

This is my favorite song on this new album
and I just wanted to tab it out because
it is such a good song.

Caleb plays this throughout the song,
this is the verse and intro
e|-------------------   ------------------------------------|
B|-------------------   ------------------------------------|
G|------------------- x2------------------------------------|
D|-----0--------0----   -----0--------0--------0--------0---|
A|---4---4----4----4-   ---4----4---4----4---4----4---4---4-|
E|-5--------5--------   -2--------2--------0--------0-------|

Matthew plays this song with effect but if you learn to play it you could still make it out

1st part of the verse:
e|---------- ----------------|
B|---------- ----------------|
G|-6--(6--6) x2 -2--(2--2)---|
D|-7--(7--7) -- -4--(4--4)---|
A|---------- ----------------|
E|---------- ----------------|

e|----------------------------------|
B|----------------------------------|
G|-1--(1--1)--6--(6--6)--6--(6--6)--|
D|-2--(2--2)--7--(7--7)--7--(7--7)--|
A|----------------------------------|
E|----------------------------------|

everything in the parenthesis is special effects 
but if you pick the first one with emphasis and 
the rest lightly, it will sound like the song
 
2nd part of the verse: This part of the song can barely be 
heard but around (0:32) it starts but you actually hear it at (0:38)  

NOTE: MATTHEW ONLY PALM MUTES THIS PART OF THE VERSE
e|---------------------------------------
B|------5--------5-------5------7--5h7---
G|----6--------6-------6-----------------
D|--7-----7--7-----7-7-----7--7--------7-
A|---------------------------------------\
E|--------------------------------------- \
                                           x2
e|--------------------------------------- /
B|------2------3--2-------0--------0-----/
G|----2-------------2---1--------1---1---
D|--4-----4--4--------2-----2--2---------
A|---------------------------------------
E|---------------------------------------

Jared’s Bass part is this for the intro and verse

NOTE: EVRYTHING BUT THE CHORUS AND THE FIRST PART OF THE BRIDGE ARE PALM MUTED FOR THE BASS
  
G|------------------------------------|
D|------------------------------------| 
A|------------------------------------| 
E|-5-5-5--5-5-5--2-2-2--0-0-0-9-9-9---|


[Chorus]

Caleb’s chorus
e|------------------------------------------------|
B|------------------------------------------------|
G|------------------------------------------------|
D|-------14----------14---------14---------14-----|
A|----12----12----12----12---12----12---12----12--|\
E|-10----------10----------9----------9-----------| \
                                                     x2
e|------------------------------------------------| /
B|------------------------------------------------|/
G|------------------------------------------------|
D|-------14----------14---------14---------14-----|
A|----12----12----12----12---12----12---12----12--|
E|--0-----------0----------0----------0-----------|


Matthew’s chorus
e|------0-------0----|
B|----2---2---2---2--|
G|--2-------2--------| x16
D|-------------------|
A|-------------------|
E|-------------------|

Jared’s chorus
G|--------------|
D|--------------|
A|-5--4--7--7---| x2
E|--------------|

There is a guitar part in this song, it sound like a 
keyboard but it isn’t. It is using an effect on the 
sound. These parts are played throughout the whole song

This part is played at(0:17)and(3:14)
e|--------------------------------|
B|--------------------------------|
G|--7-9-7-6~--6-7-9-------6-------|
D|------------------7---7---7-6~--|
A|--------------------------------|
E|--------------------------------|

This at(1:18)and(2:35)
e|------------------------------------ -(0)-| this right
B|------------------------------------ -(x)-| here is
G|--7-9-7-6~--6-7-9-6~---------6------ -(9)-| played the
D|-------------------------7-7---7-6~- -----| second time
A|------------------------------------------|
E|------------------------------------------|

e|-14/-- let it ring and slide down
B|------|
G|------|
D|------|
A|------|
E|------|
This is played at(0:55),(1:03),(1:44),
(1:52),(2:00),(2:08),(2:48),
(2:56),(3:04)and(3:12)


[Bridge]

Caleb’s Bridge part:
e|-----------------0~-----------------------0~---------|
B|--7~-------------0~-------------7~---9~---0~---------|
G|--7~--------2~---6~--------2~---7~---9~---2~---------|
D|--7~---9~---4~---7~---9~---4~---7~---9~---4~---9~~~~-|
A|--5~---7~---4~---7~---7~---4~---5~---7~---4~---7~~~~-|
E|-------7~--------5~---7~-----------------------7~~~~-|

Matthew’s part for the bridge
e|--------------------------------------------------------|
B|-15 -------14  ------15 -------14~~--15 -------14 ------|
G|-14 (x12)--14 (x12)--14 (x12)--15~~--14 (x12)--14 (x12)-|
D|--------------------------------------------------------|
A|--------------------------------------------------------|
E|--------------------------------------------------------|

e|-0--0--0--0--0--0--0--0-----0--0--0--0--0--0--0--0--|
B|-10-10-10-10-10-10-10-10----9--9--9--9--9--9--9--9--|
G|----------------------------------------------------|
D|----------------------------------------------------|
A|----------------------------------------------------|
E|----------------------------------------------------|

Jared’s Bridge Part
G|--------------------------------------|
D|--------------------------------------|
A|-5~~--7--------------------5~~--7-----|
E|---------2----5~~--7--2------------2--|

G|----
D|----
A|---- x16 Palm Mute
E|-0--


[Outro]

Caleb’s outro
e|-------------------  -----------------------|
B|-------------------  -----------------------|
G|------------------ x2 ----------------------|
D|-----0--------0----  -----0--------0--------|
A|---4---4----4----4-  ---4----4---4----4-----|
E|-5--------5--------  -2--------2--------0~--|

Matthew’s outro
e|-----------------------------------|
B|-----------------------------------|
G|-6--(6--6--6) x2 -2--(2--2--2)--1~-|
D|-7--(7--7--7)-----4--(4--4--4)--2~-|
A|-----------------------------------|
E|-----------------------------------|

Jared’s outro
G|---------------------------|
D|---------------------------|
A|---------------------------|
E|-5-5-5--5-5-5--2-2-2---0~--|

Order of the song:
[Intro]
[Verse 1]
[Chorus]
[Verse 2]
[Chorus 2]
[Bridge]
[Pre-Chorus]
[Chorus 3]
[Outro]



************************************

| x    Dead note
| (n)  Ghost note
| h    Hammer-on
| /    Slide up
| ~    Vibrato

************************************
Suggest correction
Creating personal tab
Creating personal tab
You can edit any tab online and save it as your Personal.

You can edit, replace or remove any tab part or add personal notes – all changes will be seen only by you.

Personal tabs can be accessed anytime from any device, even offline.
Learn more »
comments
print report bad tab
7 comments total. Showing first comments.
0 reply
Acetrouble 51 Jan 08, 2014 05:49 AM, edited at 10:51 am

COMPLETE, 100% COPY + PASTE of my Guitar Pro tab.

You even entirely copied Caleb's bridge part -- which I know wasn't completely accurate to begin with.

At least give me some credit for it instead of saying "I just wanted to tab it out because it is such a good song."

You didn't tab it. You just transcribed this from my Guitar Pro file, nothing more.

0 reply
Acetrouble 51 Jan 08, 2014 05:55 AM, edited at 10:56 am

Here's my original Guitar Pro tab by the way, so see for yourself, folks:
http://tabs.ultimate-guitar.com/k/kings_of_leon/wait_for_me_guitar_pro.htm

0 reply
yulizavala22 270 Jan 08, 2014 05:45 PM

I do apologize for not giving you credit because this tab did help me out to complete the tab. Many of the parts I learned by ear and doing research by looking at their live performances online. I will fix the problem as soon as I can. Sorry, no hard feelings bro.

guest
You may want to rate the tab now too:
select rating
Wanna post a correction for this tab? Suggest correction