Oops, an error
Loading. Please wait.

Wait For Me bass

version 3
version 3

Whole song

Interactive

1,835 views 6 this week
no commentswrite comment
1 2 3 4 5
1 last vote to show rating
add to favorites
×
Save as Personal and add changes to this tab that will be seen only by you. Learn more ›
×
You can save this tab as Personal to edit and correct it or add notes. All changes will be seen only by you. Learn more »
launch autoscroll
font size
0
reset
guitar tuner
edit
Autoscroll
slow
fast
+/-
esc
set tempo
stop
Author
Difficulty
This song is pretty easy to figure out, if you have any troubles check out my 
Youtube channel, Akny3xpress. Ill post the video on here as well. 
h= Hammer on
s= Slide, weather it be up or down the neck

Intro/First verse
G|----------------------------------|
D|----------------------------------|
A|-----------------444--------------|
E|-555-555--222-000-----------------|(x5)

Chorus
G|----6~-------------------|
D|-------------------------|
A|--5~--7~-----------------|
E|---------0~--------------|(x2)

Second verse
G|----------------------------------|
D|----------------------------------|
A|-----------------444--------------|
E|-555-555--222-000-----------------| (x3)

After the third time you play this he sings "Be who i am.."
play this (which transitions back into chorus)
G|-------------------------------------|
D|-------------------------------------|
A|--------------------444--------------|
E|-555-555s7s222-000-------------------|

Chorus
G|----6~-------------------|
D|-------------------------|
A|--5~--7~-----------------|
E|---------0~--------------|(x4)

Bridge
G|--------------------------------------|
D|--------------------------------------|
A|--5~-7-----------5~-7-----------------|
E|------2--5~-7-2-----2--000000000------|

G|----------------------------------|
D|----------------------------------|
A|----------------------454---------|
E|-555-555-5h7-5s222-000------------|

G|----------------------------------|
D|----------------------------------|
A|-----------------444--------------|
E|-555-555--222-000-----------------|

Chorus
G|----6~-------------------|
D|-------------------------|
A|--5~--7~-----------------|
E|---------0~--------------|(x4)

This is the last part you play.
G|---------------------|
D|---------------------|
A|---------------------|
E|-555-555-222s7-0~----|


Here is my cover if you need a visual. 

http://www.youtube.com/watch?v=FoeUPdKVHJ8&lc=VOrdKklRez9kqd4IEf_dpXGZ93depP-EADWPsEAa5JM

            
            
Suggest correction
Creating personal tab
Creating personal tab
You can edit any tab online and save it as your Personal.

You can edit, replace or remove any tab part or add personal notes – all changes will be seen only by you.

Personal tabs can be accessed anytime from any device, even offline.
Learn more »
Give kudos to tab author, rate the tab!
1 2 3 4 5
comments
print report bad tab
guest
You may want to rate the tab now too:
select rating
Wanna post a correction for this tab? Suggest correction