Oops, an error
Loading. Please wait.

Walls Bass Tab

442 views 3 this week
no commentswrite comment
1 2 3 4 5
3 more votes to show rating
add to favorites
launch autoscroll
font size
0
reset
guitar tuner
Autoscroll
slow
fast
+/-
esc
set tempo
stop
Help us to improve Ultimate-Guitar.com Take our survey!
×
Author
Difficulty
novice
Song: Walls
Artist: Kings of Leon
Album: Walls

Cover video: https://www.youtube.com/watch?v=MI5acxilf2g

Tuning: Standard ( E-A-D-G )

00:03
G|---------------------------------------------------------------------------------| 1x
D|---------------------------------------------------------------------------------|
A|---------------------------------------------------------------------------------|
E|-8~----/13~----\8~----/13~---15\-------------------------------------------------|


00:27
G|---------------------------------------------------------------------------------| 7x
D|---------------------------------------------------------------------------------|
A|---------------------------------------------------------------------------------|
E|-8~----/13~----------------------------------------------------------------------|


01:25
G|---------------------------------------------------------------------------------| 1x
D|---------------------------------------------------------------------------------|
A|-----15~-------------------------------------------------------------------------|
E|-15/--------13~----\8~----13~----5/----------------------------------------------|


01:48
G|---------------------------------------------------------------------------------| 1x
D|---------------------------------------------------------------------------------|
A|---------------------------------------------------------------------------------|
E|-8~----/13~----\8~----/13~----\8~----/13~----\8~----/13~----15\------------------|


02:46
G|---------------------------------------------------------------------------------| 1x
D|---------------------------------------------------------------------------------|
A|----------5/7-5-7-----------7-5--------------------------------------------------|
E|-5--0-5-5---------8~--0-8-8-----5~--0-5-5--8\3~--5/------------------------------|


03:09
G|---------------------------------------------------------------------------------| 1x
D|---------------------------------------------------------------------------------|
A|---------------------------------------------------------------------------------|
E|-8~----10\5~----8~----10\5~----1~---3/-------------------------------------------|


03:30
G|---------------------------------------------------------------------------------| 1x
D|---------------------------------------------------------------------------------|
A|----------------------8~---------------------------------------------------------|
E|-8~----10\1~----8~---------------------------------------------------------------|


03:56
G|---------------------------------------------------------------------------------| 1x
D|---------------------------------------------------------------------------------|
A|----------5/7-5-7-----------7-5--------------------------------------------------|
E|-5--0-5-5---------8~--0-8-8-----5~--0-5-5--8\3~--5/------------------------------|


04:19
G|---------------------------------------------------------------------------------| 1x
D|---------------------------------------------------------------------------------|
A|--------------------------------------------10-8~----12\-------8~----------------|
E|-8~----10\5~----8~----10\5~----1~----/8~-----------------8~----------8~----------|


/ - Slide up
\ - Slide down
~ - Let ring
Suggest correction
Give kudos to tab author, rate the tab!
1 2 3 4 5
comments
print report bad tab
guest
You may want to rate the tab now too:
select rating
Wanna post a correction for this tab? Suggest correction