Oops, an error
Loading. Please wait.

Waste A Moment Bass Tab

version 1
version 1

Whole song

2,869 views 204 this week
no commentswrite comment
1 2 3 4 5
x 6
add to favorites
launch autoscroll
font size
0
reset
guitar tuner
Autoscroll
slow
fast
+/-
esc
set tempo
stop
Help us to improve Ultimate-Guitar.com Take our survey!
×
Author
Difficulty
novice
------------------------------------------------------------------------------
                        Waste a Moment - Kings of Leon
------------------------------------------------------------------------------

Tabbed by: ChrisT

From the Album: WALLS (2016)

Tuning: Standard

Intro                                                               Repeat x4
G|---------------------------------------------------------------------------|
D|o-------------------------------------------------------------------------o|
A|o---5-5-5-5-5-5-5-5-5-5-5-5/10-10-10-10\2-2-2-2-2-2-2-2-------------------o|
E|--------------------------------------------------------3-3-3-3-3-3-3-3----|

Verse                                                               Repeat x3
G|---------------------------------------------------------------------------|
D|o-------------------------------------------------------------------------o|
A|o---5-5-5-5-5-5-5-5-5-5-5-5/10-10-10-10\2-2-2-2-2-2-2-2-------------------o|
E|--------------------------------------------------------3-3-3-3-3-3-3-3----|

G|-------------------------------------------------------------------|
D|-------------------------------------------------------------------|
A|----5-5-5-5-5-5-5-5-5-5-5-5/10-10-10-10/14-14-14-14-14-14-14-14----|
E|-------------------------------------------------------------------|

G|-------------------------------|
D|-------------------------------|
A|----10-10-10-10-10-10-10-10----|
E|-------------------------------|

Chorus                                                              Repeat x4
G|---------------------------------------------------------------------------|
D|o-------------------------------------------------------------------------o|
A|o---5-5-5-5-5-5-5-5-5-5-5-5/10-10-10-10\2-2-2-2-2-2-2-2-------------------o|
E|--------------------------------------------------------3-3-3-3-3-3-3-3----|

Verse                                                               Repeat x3
G|---------------------------------------------------------------------------|
D|o-------------------------------------------------------------------------o|
A|o---5-5-5-5-5-5-5-5-5-5-5-5/10-10-10-10\2-2-2-2-2-2-2-2-------------------o|
E|--------------------------------------------------------3-3-3-3-3-3-3-3----|

G|-------------------------------------------------------------------|
D|-------------------------------------------------------------------|
A|----5-5-5-5-5-5-5-5-5-5-5-5/10-10-10-10/14-14-14-14-14-14-14-14----|
E|-------------------------------------------------------------------|

G|-------------------------------|
D|-------------------------------|
A|----10-10-10-10-10-10-10-10----|
E|-------------------------------|

Chorus                                                              
G|---------------------------------------------------------------------------|
D|o-------------------------------------------------------------------------o|
A|o---5-5-5-5-5-5-5-5-5-5-5-5/10-10-10-10\2-2-2-2-2-2-2-2-------------------o|
E|--------------------------------------------------------3-3-3-3-3-3-3-3----|

G|-------------------------------------------------------------------|
D|-------------------------------------------------------------------|
A|----5-5-5-5-5-5-5-5-5-5-5-5/10-10-10-10/14-14-14-14-14-14-14-14----|
E|-------------------------------------------------------------------|

G|-------------------------------|
D|-------------------------------|
A|----10-10-10-10-10-10-10-10----|
E|-------------------------------|

G|---------------------------------------------------------------------------|
D|---------------------------------------------------------------------------|
A|----5-5-5-5-5-5-5-5-5-5-5-5/10-10-10-10\2-2-2-2-2-2-2-2--------------------|
E|--------------------------------------------------------3-3-3-3-3-3-3-3----|

G|---------------------------------------------------------------------------|
D|o-------------------------------------------------------------------------o|
A|o---5-5-5-5-5-5-5-5-5-5-5-5/10-10-10-10\2-2-2-2-2-2-2-2-------------------o|
E|--------------------------------------------------------3-3-3-3-3-3-3-3----|

Bridge
G|---------------------------------------------------------------------------|
D|---------------------------------------------------------------------------|
A|---------------------------------------------------------------------------|
E|----5-5-5-5-5-5-5-5-5-5-5-5/10-10-10-10-7-7-7-7-7-7-7-7-3-3-3-3-3-3-3-3----|

G|-----------------------------------------------|
D|-----------------------------------------------|
A|-----------------------------------------------|
E|----5-5-5-5-5-5-5-5/12-12-12-12-14-14-14-14----|

Chorus                                                              
G|---------------------------------------------------------------------------|
D|o-------------------------------------------------------------------------o|
A|o---5-5-5-5-5-5-5-5-5-5-5-5/10-10-10-10\2-2-2-2-2-2-2-2-------------------o|
E|--------------------------------------------------------3-3-3-3-3-3-3-3----|

G|-------------------------------------------------------------------|
D|-------------------------------------------------------------------|
A|----5-5-5-5-5-5-5-5-5-5-5-5/10-10-10-10/14-14-14-14-14-14-14-14----|
E|-------------------------------------------------------------------|

G|-------------------------------|
D|-------------------------------|
A|----10-10-10-10-10-10-10-10----|
E|-------------------------------|

G|---------------------------------------------------------------------------|
D|o-------------------------------------------------------------------------o|
A|o---5-5-5-5-5-5-5-5-5-5-5-5/10-10-10-10\2-2-2-2-2-2-2-2-------------------o|
E|--------------------------------------------------------3-3-3-3-3-3-3-3----|

G|-------|
D|-------|
A|---5---|
E|-------|




Suggest correction
comments
print report bad tab
guest
You may want to rate the tab now too:
select rating
Wanna post a correction for this tab? Suggest correction