Oops, an error
Loading. Please wait.

Waste A Moment Tab

version 1
version 1

Solo

Whole song

2,005 views 33 this week
2 commentsread comments
1 2 3 4 5
x 5
add to favorites
launch autoscroll
font size
0
reset
how to read this tab
guitar tuner
Autoscroll
slow
fast
+/-
esc
set tempo
stop
Author
Difficulty
About this tab version
It is the first tab for this song. Was this info helpful? Yes No
Kings of Leon 
Waste a moment
Tuning: standard
Played in bridge and solo 
Chords are D G Bm G. 
The song is in the G major scale. 


[Solo]

e|----14--12--14------|
B|----------------15--|
G|--------------------|
D|--------------------|
A|--------------------|
E|--------------------|

e|---14--12--12------14--12--------|
B|---------------12----------12--15|
G|---------------------------------|
D|---------------------------------|
A|---------------------------------|
E|---------------------------------|
Suggest correction
comments
print report bad tab
2 comments total.
0 reply
samkolharrison 17 Sep 10, 2016 01:32 PM

great tab

guest
You may want to rate the tab now too:
select rating
Wanna post a correction for this tab? Suggest correction