Oops, an error
Loading. Please wait.

Waste A Moment Tab

version 1
version 1

Whole song

4,807 views 243 this week
no commentswrite comment
1 2 3 4 5
x 4
add to favorites
launch autoscroll
font size
0
reset
how to read this tab
guitar tuner
Autoscroll
slow
fast
+/-
esc
set tempo
stop
Help us to improve Ultimate-Guitar.com Take our survey!
×
Author
Difficulty
novice
Rhythm Guitar:

[Intro, Verse & Chorus]

   D               | D               | Bm              | G
e|---------------------------------------------------------------------------|
B|---------------------------------------------------------------------------| x19
G|-7-7-7-7-7-7-7-7-|-7-7-7-7-7-7-7-7-|-4-4-4-4-4-4-4-4-|---------------------|
D|-7-7-7-7-7-7-7-7-|-7-7-7-7-7-7-7-7-|-4-4-4-4-4-4-4-4-|-5-5-5-5-5-5-5-5-----|
A|-5-5-5-5-5-5-5-5-|-5-5-5-5-5-5-5-5-|-2-2-2-2-2-2-2-2-|-5-5-5-5-5-5-5-5-----|
E|-------------------------------------------------------3-3-3-3-3-3-3-3-----|

Song Structure:
--Bass Intro x1
Rhythm Guitar enter now
--Intro x3
--Verse x4
--Chorus x2
--Lead riff after chorus x2
--Verse x4
--Chorus x4

[Bridge after Chorus 2: 2m 07s]

   D               | D               | Bm              | G
e|---------------------------------------------------------------------------|
B|---------------------------------------------------------------------------|  X2
G|-7-7-7-7-7-7-7-7-|-7-7-7-7-7-7-7-7-|-4-4-4-4-4-4-4-4-|---------------------|
D|-7-7-7-7-7-7-7-7-|-7-7-7-7-7-7-7-7-|-4-4-4-4-4-4-4-4-|-5-5-5-5-5-5-5-5-----|
A|-5-5-5-5-5-5-5-5-|-5-5-5-5-5-5-5-5-|-2-2-2-2-2-2-2-2-|-5-5-5-5-5-5-5-5-----|
E|-------------------------------------------------------3-3-3-3-3-3-3-3-----|
  
   A               | A       D       | Bm              | G
e|---------------------------------------------------------------------------|
B|---------------------------------------------------------------------------|
G|---------------------------7-7-7-7-|---------------------------------------|
D|-7-7-7-7-7-7-7-7-|-7-7-7-7-7-7-7-7-|-9-9-9-9-9-9-9-9-|-5-5-5-5-5-5-5-5-----|
A|-7-7-7-7-7-7-7-7-|-7-7-7-7-5-5-5-5-|-9-9-9-9-9-9-9-9-|-5-5-5-5-5-5-5-5-----|
E|-5-5-5-5-5-5-5-5-|-5-5-5-5-----------7-7-7-7-7-7-7-7-|-3-3-3-3-3-3-3-3-----|

   A               | E               | 
e|---------------------------------------------------------------------------|
B|---------------------------------------------------------------------------|
G|-------------------9-9-9-9-9-9-9-9-|---------------------------------------|
D|-7-7-7-7-7-7-7-7-|-9-9-9-9-9-9-9-9-|---------------------------------------|
A|-7-7-7-7-7-7-7-7-|-7-7-7-7-7-7-7-7-|---------------------------------------|
E|-5-5-5-5-5-5-5-5-|---------------------------------------------------------|


[Final Chorus & Outro]

   D               | D               | Bm              | G
e|---------------------------------------------------------------------------|
B|---------------------------------------------------------------------------| x5
G|-7-7-7-7-7-7-7-7-|-7-7-7-7-7-7-7-7-|-4-4-4-4-4-4-4-4-|---------------------|
D|-7-7-7-7-7-7-7-7-|-7-7-7-7-7-7-7-7-|-4-4-4-4-4-4-4-4-|-5-5-5-5-5-5-5-5-----|
A|-5-5-5-5-5-5-5-5-|-5-5-5-5-5-5-5-5-|-2-2-2-2-2-2-2-2-|-5-5-5-5-5-5-5-5-----|
E|-------------------------------------------------------3-3-3-3-3-3-3-3-----|


These are some variations to give a different sounds if you want: 

[Variation 1 following bass line]

   D               | D       G        | Bm              | G
e|---------------------------------------------------------------------------|
B|---------------------------------------------------------------------------|
G|-7-7-7-7-7-7-7-7-|-7-7-7-7---------|-4-4-4-4-4-4-4-4-|---------------------|
D|-7-7-7-7-7-7-7-7-|-7-7-7-7-5-5-5-5-|-4-4-4-4-4-4-4-4-|-5-5-5-5-5-5-5-5-----|
A|-5-5-5-5-5-5-5-5-|-5-5-5-5-5-5-5-5-|-2-2-2-2-2-2-2-2-|-5-5-5-5-5-5-5-5-----|
E|---------------------------3-3-3-3---------------------3-3-3-3-3-3-3-3-----|


[Variation 2 following bass line]

   D               | D       G        | Bm              | G
e|---------------------------------------------------------------------------|
B|---------------------------7-7-7-7-|---------------------------------------|
G|-7-7-7-7-7-7-7-7-|-7-7-7-7-7-7-7-7-|-4-4-4-4-4-4-4-4-|---------------------|
D|-7-7-7-7-7-7-7-7-|-7-7-7-7-5-5-5-5-|-4-4-4-4-4-4-4-4-|-5-5-5-5-5-5-5-5-----|
A|-5-5-5-5-5-5-5-5-|-5-5-5-5---------|-2-2-2-2-2-2-2-2-|-5-5-5-5-5-5-5-5-----|
E|-----------------------------------------------------|-3-3-3-3-3-3-3-3-----|


Lead Guitar Riffs:


[Lead riff after Chorus 1]
                                                                (slight bend towards end)
e|--14--12--14-----|--14--12--12-----|--14-------------|--14--12~~~~~~-------|
B|--------------15-|--------------12-|------15--12-----|---------------------|
G|--------------------------------------------------14-|---------------------|
D|---------------------------------------------------------------------------|
A|---------------------------------------------------------------------------|
E|---------------------------------------------------------------------------|

e|--14--12--14-----|--14--12--12-----|---------------------------------------|
B|--------------15-|--------------12-|---------------------------------------|
G|---------------------------------------------------------------------------|
D|---------------------------------------------------------------------------|
A|---------------------------------------------------------------------------|
E|---------------------------------------------------------------------------|



[Lead riff during Bridge: 2m 07s]
                                                                (slight bend towards end)
e|--14--12--14------|--14--12--12-----|--14--------------|--14--12~~~~~~-----|
B|--------------15--|--------------12-|------15--12------|-------------------|
G|---------------------------------------------------14--|-------------------|
D|---------------------------------------------------------------------------|
A|---------------------------------------------------------------------------|
E|---------------------------------------------------------------------------|

e|--14--12--14------|--14--12--12------|-------------------------------------|
B|--------------15--|--------------12--|-------------------------------------|
G|---------------------------------------------------------------------------|
D|---------------------------------------------------------------------------|
A|---------------------------------------------------------------------------|
E|---------------------------------------------------------------------------|

e|--14--12--14------|--14--------------|--14--12~~~~~~-----------------------|
B|--------------15--|------15--12------|-------------------------------------|
G|---------------------------------14--|-------------------------------------|
D|---------------------------------------------------------------------------|
A|---------------------------------------------------------------------------|
E|---------------------------------------------------------------------------|




************************************

| x   Dead note
| g   Grace note
| (n) Ghost note
| h   Hammer-on
| p   Pull-off
| r   Release
| >   Accented note
| t   Tapping
| b   Bend
| br  Bend release
| pb  Pre-bend
| pbr Pre-bend release
| /   Slide up
| \   Slide down
| ~   Vibrato
| s   Slap
| P   Pop
| PM  Palm mute
| TR  Trill
| N   Tremolo

************************************
Suggest correction
comments
print report bad tab
guest
You may want to rate the tab now too:
select rating
Wanna post a correction for this tab? Suggest correction