Oops, an error
Loading. Please wait.

Waste A Moment Bass Tab

version 2
version 2

Whole song

793 views 30 this week
no commentswrite comment
1 2 3 4 5
x 3
add to favorites
launch autoscroll
font size
0
reset
guitar tuner
Autoscroll
slow
fast
+/-
esc
set tempo
stop
Help us to improve Ultimate-Guitar.com Take our survey!
×
Author
Difficulty
novice
[Intro]

G|---------------------------------------------------------------------------|
D|---------------------------5-5-5-5-|---------------------------------------| X4
A|-5-5-5-5-5-5-5-5-|-5-5-5-5-----------2-2-2-2-2-2-2-2-|---------------------|
E|-------------------------------------------------------3-3-3-3-3-3-3-3-----|

[Verse]

G|---------------------------------------------------------------------------|
D|---------------------------5-5-5-5-|---------------------------------------| X3
A|-5-5-5-5-5-5-5-5-|-5-5-5-5-----------2-2-2-2-2-2-2-2-|---------------------|
E|-------------------------------------------------------3-3-3-3-3-3-3-3-----|

[Last one before Chorus]

G|-------------------------------------4-4-4-4-4-4-4-4-|----------------------|
D|---------------------------5-5-5-5-|-------------------5-5-5-5-5-5-5-5------|
A|-5-5-5-5-5-5-5-5-|-5-5-5-5--------------------------------------------------|
E|----------------------------------------------------------------------------|

[Chorus]

G|---------------------------------------------------------------------------|
D|---------------------------5-5-5-5-|---------------------------------------| X2
A|-5-5-5-5-5-5-5-5-|-5-5-5-5-----------2-2-2-2-2-2-2-2-|---------------------|
E|-------------------------------------------------------3-3-3-3-3-3-3-3-----|

[Bridge behind lead riff]

G|---------------------------------------------------------------------------|
D|---------------------------5-5-5-5-|---------------------------------------| X2
A|-5-5-5-5-5-5-5-5-|-5-5-5-5-----------2-2-2-2-2-2-2-2-|---------------------|
E|-------------------------------------------------------3-3-3-3-3-3-3-3-----|

[Verse]

G|---------------------------------------------------------------------------|
D|---------------------------5-5-5-5-|---------------------------------------| X3
A|-5-5-5-5-5-5-5-5-|-5-5-5-5-----------2-2-2-2-2-2-2-2-|---------------------|
E|-------------------------------------------------------3-3-3-3-3-3-3-3-----|

[Last one before Chorus]

G|-------------------------------------4-4-4-4-4-4-4-4-|----------------------|
D|---------------------------5-5-5-5-|-------------------5-5-5-5-5-5-5-5------|
A|-5-5-5-5-5-5-5-5-|-5-5-5-5--------------------------------------------------|
E|----------------------------------------------------------------------------|

[Chorus]

G|---------------------------------------------------------------------------|
D|---------------------------5-5-5-5-|---------------------------------------| X2
A|-5-5-5-5-5-5-5-5-|-5-5-5-5-----------2-2-2-2-2-2-2-2-|---------------------|
E|-------------------------------------------------------3-3-3-3-3-3-3-3-----|


G|-------------------------------------4-4-4-4-4-4-4-4-|---------------------|
D|---------------------------5-5-5-5-|---------------------------------------|
A|-5-5-5-5-5-5-5-5-|-5-5-5-5-------------------------------------------------|
E|-------------------------------------------------------3-3-3-3-3-3-3-3-----|

G|---------------------------------------------------------------------------|
D|---------------------------5-5-5-5-|---------------------------------------| 
A|-5-5-5-5-5-5-5-5-|-5-5-5-5-----------2-2-2-2-2-2-2-2-|---------------------|
E|-------------------------------------------------------3-3-3-3-3-3-3-3-----|

[Bridge 2m 07s]

G|---------------------------------------------------------------------------|
D|---------------------------5-5-5-5-|---------------------------------------|   X2
A|-5-5-5-5-5-5-5-5-|-5-5-5-5-----------2-2-2-2-2-2-2-2-|---------------------|
E|-------------------------------------------------------3-3-3-3-3-3-3-3-----|

G|---------------------------------------------------------------------------|
D|---------------------------------------------------------------------------|
A|---------------------------5-5-5-5-|---------------------------------------|
E|-5-5-5-5-5-5-5-5-|-5-5-5-5-----------7-7-7-7-7-7-7-7-|-3-3-3-3-3-3-3-3-----|

G|---------------------------------------------------------------------------|
D|---------------------------------------------------------------------------|
A|-------------------7-7-7-7-7-5---------------------------------------------|
E|-5-5-5-5-5-5-5-5-|-------------7-5-----------------------------------------|

[Chorus]

G|---------------------------------------------------------------------------|
D|---------------------------5-5-5-5-|---------------------------------------| X2
A|-5-5-5-5-5-5-5-5-|-5-5-5-5-----------2-2-2-2-2-2-2-2-|---------------------|
E|-------------------------------------------------------3-3-3-3-3-3-3-3-----|


G|-------------------------------------4-4-4-4-4-4-4-4-|---------------------|
D|---------------------------5-5-5-5-|---------------------------------------|
A|-5-5-5-5-5-5-5-5-|-5-5-5-5-------------------------------------------------|
E|-------------------------------------------------------3-3-3-3-3-3-3-3-----|

G|---------------------------------------------------------------------------|
D|---------------------------5-5-5-5-|---------------------------------------| 
A|-5-5-5-5-5-5-5-5-|-5-5-5-5-----------2-2-2-2-2-2-2-2-|---------------------|
E|-------------------------------------------------------3-3-3-3-3-3-3-3-----|

[Outro]

G|---------------------------------------------------------------------------|
D|---------------------------5-5-5-5-|---------------------------------------| 
A|-5-5-5-5-5-5-5-5-|-5-5-5-5-----------2-2-2-2-2-2-2-2-|---------------------|
E|-------------------------------------------------------3-3-3-3-3-3-3-3-----|

************************************

| x   Dead note
| g   Grace note
| (n) Ghost note
| h   Hammer-on
| p   Pull-off
| r   Release
| >   Accented note
| t   Tapping
| b   Bend
| br  Bend release
| pb  Pre-bend
| pbr Pre-bend release
| /   Slide up
| \   Slide down
| ~   Vibrato
| s   Slap
| P   Pop
| PM  Palm mute
| TR  Trill
| N   Tremolo

************************************
Suggest correction
Give kudos to tab author, rate the tab!
1 2 3 4 5
comments
print report bad tab
guest
You may want to rate the tab now too:
select rating
Wanna post a correction for this tab? Suggest correction