Oops, an error
Loading. Please wait.

Waste A Moment Chords

version 2
version 2

Whole song

6,427 views 282 this week
5 commentsread comments
1 2 3 4 5
x 16
add to favorites
launch autoscroll
font size
0
reset
transpose
0
reset
display chords
guitar tuner
Autoscroll
slow
fast
+/-
esc
set tempo
stop
Help us to improve Ultimate-Guitar.com Take our survey!
×
Author
Difficulty
novice
Intro Guitar and Bass 

e]--19~--19------------------------
B]--19~-----19---------------------
G]--19~----------------------------
D]---------------------------------
A]---------------------------------
E]---------------------------------

G|----------------------------------------------------------------------------
D|o---------------------------------------------------------------------------
A|o---5-5-5-5-5-5-5-5-5-5-5-5/10-10-10-10\2-2-2-2-2-2-2-2---------------------
E|--------------------------------------------------------3-3-3-3-3-3-3-3-----


e]---------------------------------------------------------------------------
B]---------------------------------------------------------------------------
G]---11~--11-12~-11-----7~---------------------------------------------------
D]------------------9~-------------------------------------------------------
A]---------------------------------------------------------------------------
E]---------------------------------------------------------------------------

D

[Verse 1]
(palm mute)
D                                      Bm               G
All the way from Waco to WeHo with the rabbit on a chain
D                                            Bm                 G
Drove a little slick car to ten bar with the static on her brain
D                                    Bm                    G
She's a little burner, burner, gonna throw you to the flame
D                                          Bm               G
Little ticking time bomb, time bomb, gonna blow us all away


[Chorus 1]
D G Bm               G
Oh, take the time to waste a moment
D G Bm           G
Oh, never ask to be forgiven


[Riff]
e|-------------------------------------------------------------------------------------------------|
B|-------------------------------------------------------------------------------------------------|
G|---9/11--9--11--7----9/11--9--9------11-------------9/11--9-9b--9/11--9--11--7--9/11--9--9-------|
D|--------------------------------12------12--11--9-------------------------------------------12---|
A|-------------------------------------------------------------------------------------------------|
E|-------------------------------------------------------------------------------------------------|



[Verse 2] 
(palm mute)
D                                           Bm                  G
Sexy was her boyfriend, with no kin, always running from the law
D                                      Bm              G
Every other weekend, weekends with his back at her claw
D                                Bm                 G
He's a live wire, wire, shooting sparks in the night
D                                 Bm                G
He's a gun for hire, hire, with a bead in his sights


[Chorus 2]
D G Bm               G       
Oh, take the time to waste a moment
D G Bm                G
Oh, face it where the lines are broken
D G Bm              G
Oh, name a price to all this living
D G Bm           G
Oh, never ask to be forgiven


[Riff]
e|-------------------------------------------------------------------------------------------------|
B|-------------------------------------------------------------------------------------------------|
G|---9/11--9--11--7----9/11--9--9------11-------------9/11--9-9b--9/11--9--11--7--9/11--9--9-------|
D|--------------------------------12------12--11--9-------------------------------------------12---|
A|-------------------------------------------------------------------------------------------------|
E|-------------------------------------------------------------------------------------------------|


A D Bm G A 

[Riff]
e|-------------------------------------------------------------------------------------------------|
B|-------------------------------------------------------------------------------------------------|
G|---9/11--9--11--7----9/11--9--9------11-------------9/11--9-9b--9/11--9--11--7--9/11--9--9-------|
D|--------------------------------12------12--11--9-------------------------------------------12---|
A|-------------------------------------------------------------------------------------------------|
E|-------------------------------------------------------------------------------------------------|



[Chorus 3]
D G Bm               G
Oh, take the time to waste a moment
D G Bm                G
Oh, face it where the lines are broken
D G Bm              G
Oh, name a price to all this living
D G Bm           G
Oh, never ask to be forgiven

D G Bm D
Suggest correction
comments
print report bad tab
5 comments total. Showing first comments. show 1 bad comment
+1 reply
StuWakley 188 Sep 11, 2016 11:00 AM

why so? does it not sound correct?

+2 reply
maatheusbaastos 10 Oct 13, 2016 03:08 AM

great tab! :D

guest
You may want to rate the tab now too:
select rating
Wanna post a correction for this tab? Suggest correction