Oops, an error
Loading. Please wait.

Waste A Moment Tab

version 2
version 2

Whole song

2,806 views 267 this week
4 commentsread comments
1 2 3 4 5
x 9
add to favorites
launch autoscroll
font size
0
reset
how to read this tab
guitar tuner
Autoscroll
slow
fast
+/-
esc
set tempo
stop
Help us to improve Ultimate-Guitar.com Take our survey!
×
Author
Difficulty
intermediate
                                   ///Waste A Moment By Kings Of Leon///

Tabbed by Izach Prince Paul

Standard Tuning EADGBE 

There's mainly two guitarists in this song but since it's a recorded version and not a live version, it will
sound like there's three guitarists.

Hope you guys enjoy it! Keep on Rocking!



[Intro]

[Lead Guitar]
   Harm.    Harm. Harm.
e|--<7>-----<7>---------|
B|--<7>---------<7>-----|
G|--<7>-----------------|  Natural Harmonics.
D|--<7>-----------------|
A|----------------------|
E|----------------------| 


[Lead Guitar] 
e|-----------|
B|-----------|
G|----7------|
D|-----------|  keep repeating this until you reach Verse.
A|--5--------|
E|-----------|


[Rhythm Guitar 1]
e|-----------------------------------|-------------------------------------------|
B|--7-7-7-7-7-7-7-7-7-7-7-8-8-8-8-8--|--3-3-3-3-3-3-3-3-3-3-3-3-5-5-5-5----------|
G|--7-7-7-7-7-7-7-7-7-7-7-7-7-7-7-7--|--4-4-4-4-4-4-4-4-4-4-4-4-0-0-0-0----------|
D|-----------------------------------|-------------------------------------------|
A|-----------------------------------|-------------------------------------------|
E|-----------------------------------|-------------------------------------------|

e|-----------------------------------|------------------------------------------|
B|--7-7-7-7-7-7-7-7-7-5-5-8-8-7-7-7--|--3-3-3-3-3-3-3-3-3-3-3-3--5-5-5-5--------|
G|--7-7-7-7-7-7-7-7-7-7-7-7-7-7-7-7--|--4-4-4-4-4-4-4-4-4-4-4-4--0-0-0-0--------|
D|-----------------------------------|------------------------------------------|
A|-----------------------------------|------------------------------------------|
E|-----------------------------------|------------------------------------------|

[Rhythm Guitar 2]
     D/A
e|--5---------|
B|--5--7------|
G|--5--7------| It's a D/A Chord.
D|--5--7------| 
A|--5---------|
E|--5---------|



[Verse 1]


[Rhythm Guitar 2]
e|---------------------|------------------------------|
B|---------------------|------------------------------|
G|---------------------|------------------------------|   
D|----7---7---7---7-7--|-------4---4---4-4------------| 
A|--5---5---5---5------|---2-2---2---2------------5---|
E|---------------------|----------------------3-3-----|


[Rhythm Guitar 1]
    D
e|---------------| "0:32 - 0:33mins"
B|--7------------|
G|--7------------| One loud strum.
D|--0------------|   
A|---------------|
E|---------------|

e|-----------------------------------|------------------------------------------|
B|--7-7-7-7-7-7-7-7-7-7-7-8-8-8-8-8--|--3-3-3-3-3-3-3-3-3-3-3-3--5-5-5-5--------|
G|--7-7-7-7-7-7-7-7-7-7-7-7-7-7-7-7--|--4-4-4-4-4-4-4-4-4-4-4-4--0-0-0-0--------| "0:38mins"
D|-----------------------------------|------------------------------------------|
A|-----------------------------------|------------------------------------------|
E|-----------------------------------|------------------------------------------|




[Chorus 1]


[Rhythm Guitar 1]
e|-----------------------------------|------------------------------------------|
B|--7-7-7-7-7-7-7-7-7-5-5-8-8-7-7-7--|--3-3-3-3-3-3-3-3-3-3-3-3--5-5-5-5--------|
G|--7-7-7-7-7-7-7-7-7-7-7-7-7-7-7-7--|--4-4-4-4-4-4-4-4-4-4-4-4--7-7-7-7--------| 
D|-----------------------------------|------------------------------------------| 
A|-----------------------------------|------------------------------------------|
E|-----------------------------------|------------------------------------------|

[Rhythm Guitar 2]
    D                Bm               G
e|-------|       e|-------|       e|-------|
B|-------|       B|--3----|       B|-------|
G|--7----| x8    G|--4----| x4    G|--4----| x4
D|--7----|       D|--4----|       D|--5----|
A|--5----|       A|--2----|       A|--5----|
E|-------|       E|-------|       E|--3----|


[1st Interlude]

[Rhythm Guitar 2]
e|---------------------|------------------------------|
B|---------------------|------------------------------|
G|---------------------|------------------------------|   
D|----7---7---7---7-7--|-------4---4---4-4------------| 
A|--5---5---5---5------|---2-2---2---2------------5---|
E|---------------------|----------------------3-3-----|

[Lead Guitar]
e|------------------------------------|-------------------|
B|--7-5-7-3---7-5-5---7-------7-5b7---|--7-5-7-3-7-5-5-3--|
G|------------------7---7-6-4---------|-------------------| 
D|------------------------------------|-------------------|
A|------------------------------------|-------------------|
E|------------------------------------|-------------------|


[Verse 2]


[Rhythm Guitar 2]
e|---------------------|----------------------------|
B|---------------------|----------------------------|
G|---------------------|----------------------------|   
D|----7---7---7---7-7--|-----4---4---4-4------------| 
A|--5---5---5---5------|-2-2---2---2------------5---|
E|---------------------|--------------------3-3-----|

[Rhythm Guitar 1]
    D
e|---------------| "1:22 - 1:23mins"
B|--7------------|
G|--7------------|    
D|--0------------| One loud strum.
A|---------------|
E|---------------|

e|-----------------------------------|------------------------------------------|
B|--7-7-7-7-7-7-7-7-7-7-7-8-8-8-8-8--|--3-3-3-3-3-3-3-3-3-3-3-3--5-5-5-5--------|
G|--7-7-7-7-7-7-7-7-7-7-7-7-7-7-7-7--|--4-4-4-4-4-4-4-4-4-4-4-4--0-0-0-0--------|  "1:29"
D|-----------------------------------|------------------------------------------|
A|-----------------------------------|------------------------------------------|
E|-----------------------------------|------------------------------------------|


e|-------------------------|-------------------------------------------------------------|
B|--7-7-7-7-7-7-7-7-7-7-7--|-8-8-8-8-8-10-10-10-10-10-10-10-10-10-10-10-10-10-10-10-10---|
G|--7-7-7-7-7-7-7-7-7-7-7--|-7-7-7-7-7-7--7--7--7--7--7--7--7--7--7--7--7--7--7--7--7----| 
D|-------------------------|-------------------------------------------------------------|
A|-------------------------|-------------------------------------------------------------|
E|-------------------------|-------------------------------------------------------------|


[Chorus 2]


[Rhythm Guitar 1]
e|-----------------------------------|------------------------------------------|
B|--7-7-7-7-7-7-7-7-7-5-5-8-8-7-7-7--|--3-3-3-3-3-3-3-3-3-3-3-3--5-5-5-5--------|
G|--7-7-7-7-7-7-7-7-7-7-7-7-7-7-7-7--|--4-4-4-4-4-4-4-4-4-4-4-4--7-7-7-7--------| 
D|-----------------------------------|------------------------------------------| 
A|-----------------------------------|------------------------------------------|
E|-----------------------------------|------------------------------------------|


[Rhythm Guitar 2]
    D                Bm               G
e|-------|       e|-------|       e|-------|
B|-------|       B|--3----|       B|-------|
G|--7----| x8    G|--4----| x4    G|--4----| x4
D|--7----|       D|--4----|       D|--5----|
A|--5----|       A|--2----|       A|--5----|
E|-------|       E|-------|       E|--3----|


[2nd Interlude]

[Rhythm Guitar 2]
e|---------------------|----------------------------|
B|---------------------|----------------------------|
G|---------------------|----------------------------|   
D|----7---7---7---7-7--|-----4---4---4-4------------| 
A|--5---5---5---5------|-2-2---2---2------------5---|
E|---------------------|--------------------3-3-----|

[Lead Guitar]
e|------------------------------------|-------------------|
B|--7-5-7-3---7-5-5---7-------7-5b7---|--7-5-7-3-7-5-5-3--|
G|------------------7---7-6-4---------|-------------------| 
D|------------------------------------|-------------------|
A|------------------------------------|-------------------|
E|------------------------------------|-------------------|



[Rhythm Guitar 2]
    A                Bm               G
e|-------|       e|-------|       e|-------|
B|-------|       B|--3----|       B|-------|
G|--6----| x8    G|--4----| x4    G|--4----| x4         
D|--7----|       D|--4----|       D|--5----|
A|--7----|       A|--2----|       A|--5----|
E|--5----|       E|-------|       E|--3----|


[Lead Guitar]
e|-------------------------|
B|--7-5-7-3-7-------7-5b7--|
G|------------7-6-4--------| 
D|-------------------------|
A|-------------------------|
E|-------------------------|


[Chorus 3]


[Rhythm Guitar 1]
e|-----------------------------------|------------------------------------------|
B|--7-7-7-7-7-7-7-7-7-5-5-8-8-7-7-7--|--3-3-3-3-3-3-3-3-3-3-3-3--5-5-5-5--------|
G|--7-7-7-7-7-7-7-7-7-7-7-7-7-7-7-7--|--4-4-4-4-4-4-4-4-4-4-4-4--7-7-7-7--------| 
D|-----------------------------------|------------------------------------------| 
A|-----------------------------------|------------------------------------------|
E|-----------------------------------|------------------------------------------|



[Rhythm Guitar 2]
    D                Bm               G
e|-------|       e|-------|       e|-------|
B|-------|       B|--3----|       B|-------|
G|--7----| x8    G|--4----| x4    G|--4----| x4
D|--7----|       D|--4----|       D|--5----|
A|--5----|       A|--2----|       A|--5----|
E|-------|       E|-------|       E|--3----|


[Outro]

[Rhythm Guitar 1]
e|--------------------|-----------------------------------|
B|---7-7-7-7-7-7-8-8--|---3-3-3-3-3-3-3-3-3-3-3-3/5-5/10--|
G|--7-7-7-7-7-7-7-7-7-|-\4-4-4-4-4-4-4-4-4-4-4-4/7-7/11---|
D|--------------------|-----------------------------------|
A|--------------------|-----------------------------------|
E|--------------------|-----------------------------------|


[Rhythm Guitar 2]
e|---------------------|--------------------------------|
B|---------------------|--------------------------------|
G|---------------------|--------------------------------|   
D|----7---7---7---7-7--|-------4---4---4-4--------------| 
A|--5---5---5---5------|---2-2---2---2------------5--/5-|
E|---------------------|----------------------3-3-------|

[Lead Guitar] 
e|-----------|
B|-----------|
G|----7------|
D|-----------|  Just repeat this until the end.
A|--5--------|
E|-----------|









************************************

| x   Dead note
| g   Grace note
| (n) Ghost note
| h   Hammer-on
| p   Pull-off
| r   Release
| >   Accented note
| t   Tapping
| b   Bend
| br  Bend release
| pb  Pre-bend
| pbr Pre-bend release
| /   Slide up
| \   Slide down
| ~   Vibrato
| s   Slap
| P   Pop
| PM  Palm mute
| TR  Trill
| N   Tremolo

************************************
Suggest correction
comments
print report bad tab
4 comments total. Showing first comments.
+1 reply
zachismyname14 10 Oct 14, 2016 04:00 PM

Great Tab!

+1 reply
helpee17 10 Oct 14, 2016 04:03 PM

Nice Work.

+1 reply
Geertdeboer 31 Oct 14, 2016 06:49 PM

Perfect, 5 stars!

guest
You may want to rate the tab now too:
select rating
Wanna post a correction for this tab? Suggest correction