Oops, an error
Loading. Please wait.

Wasted Time tab

version 1
version 1

Whole song

Interactive

20,669 views 24 this week
6 commentsread comments
1 2 3 4 5
x 12
add to favorites
×
Save as Personal and add changes to this tab that will be seen only by you. Learn more ›
×
You can save this tab as Personal to edit and correct it or add notes. All changes will be seen only by you. Learn more »
launch autoscroll
font size
0
reset
how to read this tab
guitar tuner
edit
Autoscroll
slow
fast
+/-
esc
set tempo
stop
                    KINGS OF LEON   WASTED TIME

Wasted Time by the one and only Kings! Of! Leon!

A Truely Class Song From A Truely Class Band. They Combine Country
And Punk To Create Their Own Fantastic Style!


Standard Tuning

INRTO

e|--------------------------------------------------------------------------
B|--------------------------------------------------------------------------
G|--------------------------------------------------------------------------
D|---2-----2--------------x4------------------------------------------------
A|--------------------------------------------------------------------------
E|-0----0------4s5----------------------------------------------------------

NO GUITAR IN VERSE 1



CHORUS
e|-----------------------------------------------------0--------------------
B|-7----------------------7-----------------7---7---7--0--------------------
G|-7-6--------------------7-6---------------7-6-7-6-7--1--------------------
D|-7-7--------------------7-7---------------7-7-7-7-7--2--------------------
A|-5-7--------------------5-7---------------5-7-5-7-5--2--------------------
E|---5----------------------5-----------------5---5----0--------------------
      Her innocent smile       Runnin' free                Baby don't.....

e|------------------------0-------------------------------------------------
B|-2s3s2-0-2-0-2s3s2-0----0----------------2s3s2-0-2-0-2s3s2-0--------------
G|-2s3s2-0-2-0-2s3s2-0-2--1----------------2s3s2-0-2-0-2s3s2-0-2------------
D|---------------------2--2------------------------------------2------------
A|------------------------2-------------------------------------------------
E|------------------------0-------------------------------------------------
                             Baby don't....


VERSE 2
e|--------------------------------------------------------------------------
B|--------------------------------------------------------------------------
G|-1-1-1-1-4----------------------------------------------------------------
D|-2-2-2-2-5-x8-----------2---2--------X4-----------------------------------
A|-2-2-2-2-5---------------------4s5----------------------------------------
E|-0-0-0-0-3-----THEN---0---0-----------------------------------------------


CHORUS
e|-----------------------------------------------------0--------------------
B|-7----------------------7-----------------7---7---7--0--------------------
G|-7-6--------------------7-6---------------7-6-7-6-7--1--------------------
D|-7-7--------------------7-7---------------7-7-7-7-7--2--------------------
A|-5-7--------------------5-7---------------5-7-5-7-5--2--------------------
E|---5----------------------5-----------------5---5----0--------------------
      Her innocent smile       Runnin' free                Baby don't.....


e|------------------------0-------------------------------------------------
B|-2s3s2-0-2-0-2s3s2-0----0----------------2s3s2-0-2-0-2s3s2-0--------------
G|-2s3s2-0-2-0-2s3s2-0-2--1----------------2s3s2-0-2-0-2s3s2-0-2------------
D|---------------------2--2------------------------------------2------------
A|------------------------2-------------------------------------------------
E|------------------------0-------------------------------------------------
                             Baby don't....

INTERLUDE 1
e|--------------------------------------------------------------------------
B|---------------------------------2-2-2-2-2p0-------X4---------------------
G|---------------------------------2-2-2-2-2p0------------------------------
D|-0h2-2-5-0-0h2-5--X4----WAIT...-------------------------------------------
A|--------------------------------------------------------------------------
E|--------------------------------------------------------------------------
                                  RYTHM-CAN'T WORK OUT LEAD!


NO GUITAR FOR THE NEXT 'TIME ON MY IS WASTED TIME'


INTERLUDE 2
e|--------------------------------------------------------------------------
B|-2s3s2-0-2-0-2s3s2-0------------------------------------------------------
G|-2s3s2-0-2-0-2s3s2-0-2----------X4----------------------------------------
D|---------------------2----------------------------------------------------
A|--------------------------------------------------------------------------
E|--------------------------------------------------------------------------

THEN REPEAT CHORUS
e|-----------------------------------------------------0--------------------
B|-7----------------------7-----------------7---7---7--0--------------------
G|-7-6--------------------7-6---------------7-6-7-6-7--1--------------------
D|-7-7--------------------7-7---------------7-7-7-7-7--2--------------------
A|-5-7--------------------5-7---------------5-7-5-7-5--2--------------------
E|---5----------------------5-----------------5---5----0--------------------
      Her innocent smile       Runnin' free                Baby don't.....


e|------------------------0-------------------------------------------------
B|-2s3s2-0-2-0-2s3s2-0----0----------------2s3s2-0-2-0-2s3s2-0--------------
G|-2s3s2-0-2-0-2s3s2-0-2--1----------------2s3s2-0-2-0-2s3s2-0-2------------
D|---------------------2--2------------------------------------2------------
A|------------------------2-------------------------------------------------
E|------------------------0-------------------------------------------------
                             Baby don't....


REPEAT THIS LAST LINE TO THE END OF THE SONG. LISTEN FOR EXACT AMOUNT.

HOPE I HAVE BEEN A HELP TO ALL THOSE PEOPLE OUT THERE WHO LISTEN TO REAL MUSIC!

CHEERS!   JAKE™ ☺☺☺


P.S. HI TO ALL MY FRIENDS   NADDA DUKKHA TIM DOM PHIL JIMI LEVETT HOLLY JADE AND ANYONE WHO I FORGOT!   BYE

            
            
Suggest correction
Creating personal tab
Creating personal tab
You can edit any tab online and save it as your Personal.

You can edit, replace or remove any tab part or add personal notes – all changes will be seen only by you.

Personal tabs can be accessed anytime from any device, even offline.
Learn more »
comments
print report bad tab
6 comments total. Showing first comments.
0 reply
hookybaby 10 Apr 27, 2005 08:00 PM

jake this is the worst tab eva u suck!!

0 reply
SpidersofZen 10 Feb 13, 2006 04:53 PM

there are a few errors - one glaring.
Firstly - the riff at the start does a 4/5 fret hit on the a string and not the e as reported here.
Secondly the chord that is hit when Caleb sings 'baby gonna give it...' isnt just a simple E maj chord - oh if it were so simple - this chord is he chord that gives the song its bawwwllzz - and its something like:

e---0 or 0 then running to 0-0-0--0-0-0
b---3 3 3-3-3--3-3-3
g---3 3 3-2-0--3-2-0
d---0 2 2-2-2--2-2-2
a---2 2 x-x-x--x-x-x
e---0 0

if you have any comments or want my version of the tab email me at et2421@hotmail.com

0 reply
SpidersofZen 10 Feb 13, 2006 05:13 PM

oops ill fix that up hang on...

e---0-------0-0-0--0-0-0
b---3-------3-2-0--3-2-0
g---3-------3-2-0--3-2-0
d---2-------2-2-2--2-2-2
a---2-------x-x-x--x-x-x
e---0-------x-x-x--x-x-x

that first chord could be a 2 fret at the d string or an open D for added effect - i cant tell. But the rest is what it should be

guest
Wanna post a correction for this tab? Suggest correction