Oops, an error
Loading. Please wait.

Where Nobody Knows tab

version 1
version 1

Whole song

Interactive

9,314 views 1 this week
no commentswrite comment
1 2 3 4 5
x 6
add to favorites
×
Save as Personal and add changes to this tab that will be seen only by you. Learn more ›
×
You can save this tab as Personal to edit and correct it or add notes. All changes will be seen only by you. Learn more »
launch autoscroll
font size
0
reset
how to read this tab
guitar tuner
edit
Autoscroll
slow
fast
+/-
esc
set tempo
stop
Author
I'll split this tab into two...i.e. Caleb (Rhythm Guitar) and Matthew (Lead Guitar)

Caleb

4 bar intro then....

        A                 A                 A                 A
e |-----5---5-------------5---5-------------5---5-------------5---5--------|
B |-----5---5-------------5---5-------------5---5-------------5---5--------|
G |-----6---6-------------6---6-------------6---6-------------6---6--------|
D |-----7---7-------------7---7-------------7---7-------------7---7--------|
A |-----7---7-------------7---7-------------7---7-------------7---7--------|
E |-0---5---5---------0---5---5---------0---5---5---------0---5---5--------|

Verse 1

        A                 A                 A                 A
e |----------------------------------------------------------------------|
B |----------------------------------------------------------------------|
G |----------------------------------------------------------------------|
D |-----7---7-------------7---7-------------7---7-------------7---7------|
A |-----7---7-------------7---7-------------7---7-------------7---7------|
E |-----5---5-------------5---5-------------5---5-------------5---5------|

        A                 A                 A                 A
e |----------------------------------------------------------------------|
B |----------------------------------------------------------------------|
G |----------------------------------------------------------------------|
D |-----7---7-------------7---7-------------7---7-------------7---7------|
A |-----7---7-------------7---7-------------7---7-------------7---7------|
E |-----5---5-------------5---5-------------5---5-------------5---5------|


Chorus

        E                 D                 A                 A
e |-----0---0-------------2--2------------5---5-------------5---5--------|
B |-----0---0-------------3--3------------5---5-------------5---5--------|
G |-----1---1-------------2--2------------6---6-------------6---6--------|
D |-----2---2-------------0--0------------7---7-------------7---7--------|
A |-----2---2-----------------------------7---7-------------7---7--------|
E |-----0---0-----------------------------5---5---------0---5---5--------|

        E                 D                 A                 A
e |-----0---0-------------2--2------------5---5-------------5---5--------|
B |-----0---0-------------3--3------------5---5-------------5---5--------|
G |-----1---1-------------2--2------------6---6-------------6---6--------|
D |-----2---2-------------0--0------------7---7-------------7---7--------|
A |-----2---2-----------------------------7---7-------------7---7--------|
E |-----0---0-----------------------------5---5---------0---5---5--------|
  

        A                 A
   -----5---5-------------5---5--------------------------------------|
   -----5---5-------------5---5--------------------------------------|
   -----6---6-------------6---6--------------------------------------|
   -----7---7-------------7---7--------------------------------------|
   -----7---7-------------7---7--------------------------------------|
   -0---5---5---------0---5---5--------------------------------------|

       
Verse 2

        A                 A                 A                 A
e |----------------------------------------------------------------------|
B |----------------------------------------------------------------------|
G |----------------------------------------------------------------------|
D |-----7---7-------------7---7-------------7---7-------------7---7------|
A |-----7---7-------------7---7-------------7---7-------------7---7------|
E |-----5---5-------------5---5-------------5---5-------------5---5------|

        A                 A                 A                 A
e |----------------------------------------------------------------------|
B |----------------------------------------------------------------------|
G |----------------------------------------------------------------------|
D |-----7---7-------------7---7-------------7---7-------------7---7------|
A |-----7---7-------------7---7-------------7---7-------------7---7------|
E |-----5---5-------------5---5-------------5---5-------------5---5------|


Chorus

        E                 D                 A                 A
e |-----0---0-------------2--2------------5---5-------------5---5--------|
B |-----0---0-------------3--3------------5---5-------------5---5--------|
G |-----1---1-------------2--2------------6---6-------------6---6--------|
D |-----2---2-------------0--0------------7---7-------------7---7--------|
A |-----2---2-----------------------------7---7-------------7---7--------|
E |-----0---0-----------------------------5---5---------0---5---5--------|

        E                 D                 A                 A
e |-----0---0-------------2--2------------5---5-------------5---5--------|
B |-----0---0-------------3--3------------5---5-------------5---5--------|
G |-----1---1-------------2--2------------6---6-------------6---6--------|
D |-----2---2-------------0--0------------7---7-------------7---7--------|
A |-----2---2-----------------------------7---7-------------7---7--------|
E |-----0---0-----------------------------5---5---------0---5---5--------|
  

        A                 A
   -----5---5-------------5---5--------------------------------------|
   -----5---5-------------5---5--------------------------------------|
   -----6---6-------------6---6--------------------------------------|
   -----7---7-------------7---7--------------------------------------|
   -----7---7-------------7---7--------------------------------------|
   -0---5---5---------0---5---5--------------------------------------|


Solo

        A                 A                 A                 A
e |-----5---5-------------5---5-------------5---5-------------5---5-------|
B |-----5---5-------------5---5-------------5---5-------------5---5-------|
G |-----6---6-------------6---6-------------6---6-------------6---6-------|
D |-----7---7-------------7---7-------------7---7-------------7---7-------|
A |-----7---7-------------7---7-------------7---7-------------7---7-------|
E |-----5---5---------0---5---5---------0---5---5---------0---5---5-------|

        E                 D                 A                 A
e |-----0---0-------------2--2------------5---5-------------5---5--------|
B |-----0---0-------------3--3------------5---5-------------5---5--------|
G |-----1---1-------------2--2------------6---6-------------6---6--------|
D |-----2---2-------------0--0------------7---7-------------7---7--------|
A |-----2---2-----------------------------7---7-------------7---7--------|
E |-----0---0-----------------------------5---5---------0---5---5--------|

        E                 D                 A                 A
e |-----0---0-------------2--2------------5---5-------------5---5--------|
B |-----0---0-------------3--3------------5---5-------------5---5--------|
G |-----1---1-------------2--2------------6---6-------------6---6--------|
D |-----2---2-------------0--0------------7---7-------------7---7--------|
A |-----2---2-----------------------------7---7-------------7---7--------|
E |-----0---0-----------------------------5---5---------0---5---5--------|
  

        A                 A
   -----5---5-------------5---5--------------------------------------|
   -----5---5-------------5---5--------------------------------------|
   -----6---6-------------6---6--------------------------------------|
   -----7---7-------------7---7--------------------------------------|
   -----7---7-------------7---7--------------------------------------|
   -0---5---5---------0---5---5--------------------------------------|


Outro

        A                 A                 A                 A
e |---------------------------------------------------------------------|
B |---------------------------------------------------------------------|
G |---------------------------------------------------------------------|
D |-----7-----------------7-----------------7-----------------7---------|
A |-----7-----------------7-----------------7-----------------7---------|
E |-----5-----------------5-----------------5-----------------5---------|

       
        E                 A
   -----0---0-------------5---5----------------------------------------|
   -----0---0-------------5---5----------------------------------------|
   -----1---1-------------6---6----------------------------------------|
   -----2---2-------------7---7----------------------------------------|
   -----2---2-------------7---7----------------------------------------|
   -----0---0-------------5---5----------------------------------------|

Matthew

After 4 bar intro...

e |--------------------|
B |-5---5---5--5---5---|
G |-6---6---6----6-----|   x4
D |-7---7---7----------|
A |--------------------|
E |--------------------|

Verse 1 - Nothing Played

Chorus

        E                 D                
e |------------------------------------------------------------------|
B |---------12---------10--10----------------------------------------|
G |---------13---------11--11-----5--5--5--5---5-----5--5--5--5---5--|
D |-0---14--14---------12--12-----6--6--6----6-------6--6--6----6----|
A |-----14--14---------12--12-----7--7--7------------7--7--7---------|
E |-----12--12---------10--10----------------------------------------|

         E                D              A                 A
e |--------------------------------------5---5-------------5---5----------|
B |---------12------------10--10---------5---5-------------5---5----------|
G |---------13------------11--11---------6---6-------------6---6----------|
D |-0---14--14------------12--12-----7---7---7---------7---7---7----------|
A |-----14--14------------12--12-----7---7---7---------7---7---7----------|
E |-----12--12------------10--10-----0---5---5---------0---5---5----------|

        A                 A
   -----5---5-------------5---5---------------------------------------|
   -----5---5-------------5---5---------------------------------------|
   -----6---6-------------6---6---------------------------------------|
   -7---7---7---------7---7---7---------------------------------------|
   -7---7---7---------7---7---7---------------------------------------|
   -0---5---5---------0---5---5---------------------------------------|


Verse 2

e |--------------------|
B |-5---5---5--5---5---|
G |-6---6---6----6-----|   x8
D |-7---7---7----------|
A |--------------------|
E |--------------------|

Chorus

        E                 D                
e |------------------------------------------------------------------|
B |---------12---------10--10----------------------------------------|
G |---------13---------11--11-----5--5--5--5---5-----5--5--5--5---5--|
D |-0---14--14---------12--12-----6--6--6----6-------6--6--6----6----|
A |-----14--14---------12--12-----7--7--7------------7--7--7---------|
E |-----12--12---------10--10----------------------------------------|

         E                D              A                 A
e |--------------------------------------5---5-------------5---5----------|
B |---------12------------10--10---------5---5-------------5---5----------|
G |---------13------------11--11---------6---6-------------6---6----------|
D |-0---14--14------------12--12-----7---7---7---------7---7---7----------|
A |-----14--14------------12--12-----7---7---7---------7---7---7----------|
E |-----12--12------------10--10-----0---5---5---------0---5---5----------|

        A                 A
   -----5---5-------------5---5---------------------------------------|
   -----5---5-------------5---5---------------------------------------|
   -----6---6-------------6---6---------------------------------------|
   -7---7---7---------7---7---7---------------------------------------|
   -7---7---7---------7---7---7---------------------------------------|
   -0---5---5---------0---5---5---------------------------------------|


Solo
    1  +  2  +  3  +  4  +     1  +  2  +  3  +  4  +  
e |--------------------------|--------------------------|
B |--------------------------|--------------------------|
G |-14-14-14-14-14-14----14--|-14-14-14-14-14-14----14--|
D |-14-14-14-14-14-14----14--|-14-14-14-14-14-14----14--|
A |--0--0--0--0--0--0-----0--|--0--0--0--0--0--0-----0--|
E |--------------------------|--------------------------|

 
e |-----------------------------|---------------------------|
B |-14---141414--151515--14--14-|--15---14---15---14--------|
G |-14---141414--141414--14--14-|--14---14---14---14--------|
D |-14---141414--141414--14--14-|---------------------------|
A |--0----0-0-0---0-0-0---0-----|---------------------------|
E |-----------------------------|---------------------------|

e |---------------------------|---------------------------|
B |---------------10-10-10----|--7---7-7-7--7---7-7-7-----|
G |-7/9---9--9-9---9--9--9----|--7---7-7-7--7---7-7-7-----|
D |---------------------------|--7---7-7-7--7---7-7-7-----|
A |---------------------------|---------------------------|
E |---------------------------|---------------------------|

e |---------------------------|---------------------------|
B |---------------------------|---------------------------|
G |---------------------------|---------------------------|
D |--7--7---------------------|--7--7---------------------|
A |--7--7---------------------|--7--7---------------------|
E |--5--5------------------0--|--5--5---------------------|

e |----------------------|-----------------------|
B |-----7----------------|-----10sb(13)----------|
G |-----------9----------|-----------------------|
D |----------------------|-----------------------|
A |----------------------|-----------------------|
E |----------------------|-----------------------|

Outro

4 bars silence - i.e. while caleb plays A 4 times then

e |----------------------------------------------|
B |----------------------------------------------|
G |----------------------------------------------|
D |-----14--14-----------7---7-------------------|
A |-----14--14-----------7---7-------------------|
E |-----12--12-----------5---5-------------------|
  

A. Taylor





            
            
Suggest correction
Creating personal tab
Creating personal tab
You can edit any tab online and save it as your Personal.

You can edit, replace or remove any tab part or add personal notes – all changes will be seen only by you.

Personal tabs can be accessed anytime from any device, even offline.
Learn more »
comments
print report bad tab
guest
You may want to rate the tab now too:
select rating
Wanna post a correction for this tab? Suggest correction