Oops, an error
Loading. Please wait.

Wild Bass Tab

82 views 1 this week
no commentswrite comment
1 2 3 4 5
2 more votes to show rating
add to favorites
launch autoscroll
font size
0
reset
guitar tuner
Autoscroll
slow
fast
+/-
esc
set tempo
stop
Help us to improve Ultimate-Guitar.com Take our survey!
×
Author
Difficulty
novice
--------------------------------------------------------------------------
                            Artist - Kings Of Leon
                          *************************
                                 Song - Wild
                                *************
                            Album - Walls (2016) 
                           **********************
                            Tabbed By - Ayreon77
                           **********************
--------------------------------------------------------------------------
Tuning = Standard             


00:16
G|-----------------|-----------------|-----------------|-----------------|
D|-----------------|-----------------|-----------------|-----------------|
A|-7-7-7-7-7-7-7-7-|-7-7-7-7-7-7-7-7-|-----------------|-----------------|
E|-----------------|-----------------|-5-5-5-5-5-5-5-5-|-5-5-5-5-5-5-5-5-|


G|-----------------|-----------------|-----------------|--------------------|
D|-----------------|-----------------|-----------------|--------------s-----|
A|-7-7-7-7-7-7-7-7-|-7-7-7-7-7-7-7-7-|-----------------|-------------7\14~~-|
E|-----------------|-----------------|-5-5-5-5-5-5-5-5-|-5-5-5-5-5-5--------|


------------------------------
00:35
VERSE 1
********
G|--------|--------|--------|---------------------------|--------------------|
D|---s----|--s-----|---s----|-9-11-11-11-11-11-11-11-11-|-11-11-11-11-11-9-9-|
A|-16\-12-|-7\14~~-|-16\-12-|---------------------------|--------------------|
E|--------|--------|--------|---------------------------|--------------------|


G|-------------------------|--------------------|-------------------------|------------------s-|
D|-------------------------|----------------9-9-|-11-11-11-11-11-11-11-11-|-11-11-11-11-11-13\-|
A|-12-12-12-12-12-12-12-12-|-12-12-12-12-12-----|-------------------------|--------------------|
E|-------------------------|--------------------|-------------------------|--------------------|


G|-----------------|-----------s-|
D|-9-9-9-9-9-9-9-9-|-9-9-9-9-9-\-|
A|-----------------|-------------|
E|-----------------|-------------|


------------------------------
01:05
CHORUS
*******
G|-----------------|------------------------------------------|-------------------------|
D|-----------------|----------------s-------------------------|-------------------------|
A|-7-7-7-7-7-7-7-7-|-7-7-7-7-7-7-7-7\-12-12-12-12-12-12-12-12-|-12-12-12-12-12-12-12-12-|
E|-----------------|------------------------------------------|-------------------------|


G|-----------------|------------------------------------------|-------------------------|
D|-----------------|----------------s-------------------------|-------------------------|
A|-7-7-7-7-7-7-7-7-|-7-7-7-7-7-7-7-7\-12-12-12-12-12-12-12-12-|-12-12-12-12-12-12-12-12-|
E|-----------------|------------------------------------------|-------------------------|


G|-----------------|-----------------|-----------------|-----------------|
D|-9-9-9-9-9-9-9-9-|-9-9-9-9-9-9-9-9-|-7-7-7-7-7-7-7-7-|-7-7-7-7-7-7-7-7-|
A|-----------------|-----------------|-----------------|-----------------|
E|-----------------|-----------------|-----------------|-----------------|


G|-----------------|-----------------|-----------------|------------------|
D|-9-9-9-9-9-9-9-9-|-9-9-9-9-9-9-9-9-|-7-7-7-7-7-7-7-7-|-7-7-7-7-7-7--s---|
A|-----------------|-----------------|-----------------|-------------7\14-|
E|-----------------|-----------------|-----------------|------------------|


------------------------------
01:41
VERSE 1
********
G|--------|--------|--------|---------------------------|--------------------|
D|---s----|--s-----|---s----|-9-11-11-11-11-11-11-11-11-|-11-11-11-11-11-9-9-|
A|-16\-12-|-7\14~~-|-16\-12-|---------------------------|--------------------|
E|--------|--------|--------|---------------------------|--------------------|


G|-------------------------|--------------------|-------------------------|------------------s-|
D|-------------------------|----------------9-9-|-11-11-11-11-11-11-11-11-|-11-11-11-11-11-13\-|
A|-12-12-12-12-12-12-12-12-|-12-12-12-12-12-----|-------------------------|--------------------|
E|-------------------------|--------------------|-------------------------|--------------------|


G|-----------------|--------------s-|
D|-9-9-9-9-9-9-9-9-|-9-9-9-9-9--11\-|
A|-----------------|----------------|
E|-----------------|----------------|


------------------------------
02:10
CHORUS
*******
G|-----------------|------------------------------------------|-------------------------|
D|-----------------|----------------s-------------------------|-------------------------|
A|-7-7-7-7-7-7-7-7-|-7-7-7-7-7-7-7-7\-12-12-12-12-12-12-12-12-|-12-12-12-12-12-12-12-12-|
E|-----------------|------------------------------------------|-------------------------|


G|-----------------|------------------------------------------|-------------------------|
D|-----------------|----------------s-------------------------|-------------------------|
A|-7-7-7-7-7-7-7-7-|-7-7-7-7-7-7-7-7\-12-12-12-12-12-12-12-12-|-12-12-12-12-12-12-12-12-|
E|-----------------|------------------------------------------|-------------------------|


G|-----------------|-----------------|-----------------|-----------------|
D|-9-9-9-9-9-9-9-9-|-9-9-9-9-9-9-9-9-|-7-7-7-7-7-7-7-7-|-7-7-7-7-7-7-7-7-|
A|-----------------|-----------------|-----------------|-----------------|
E|-----------------|-----------------|-----------------|-----------------|


G|-----------------|-----------------|-----------------|-----------------|
D|-9-9-9-9-9-9-9-9-|-9-9-9-9-9-9-9-9-|-7-7-7-7-7-7-7-7-|-7-7-7-7-7-7-7-7-|
A|-----------------|-----------------|-----------------|-----------------|
E|-----------------|-----------------|-----------------|-----------------|


------------------------------
02:42
SOLO
*****
G|-----------------|-----------------|-----------------|------------s------|
D|-9-9-9-9-9-9-9-9-|-9-9-9-9-9-9-9-9-|-7-7-7-7-7-7-7-7-|-7-7-7-7-7-7\11-11-|
A|-----------------|-----------------|-----------------|-------------------|
E|-----------------|-----------------|-----------------|-------------------|


G|-----------------|-----------------|-----------------|-----------------|
D|-9-9-9-9-9-9-9-9-|-9-9-9-9-9-9-9-9-|-7-7-7-7-7-7-7-7-|-7-7-7-7-7-7-7-7-|
A|-----------------|-----------------|-----------------|-----------------|
E|-----------------|-----------------|-----------------|-----------------|


------------------------------
02:59
CHORUS
*******
G|-----------------|------------------------------------------|-------------------------|
D|-----------------|----------------s-------------------------|-------------------------|
A|-7-7-7-7-7-7-7-7-|-7-7-7-7-7-7-7-7\-12-12-12-12-12-12-12-12-|-12-12-12-12-12-12-12-12-|
E|-----------------|------------------------------------------|-------------------------|


G|-----------------|------------------------------------------|-------------------------|
D|-----------------|----------------s-------------------------|-------------------------|
A|-7-7-7-7-7-7-7-7-|-7-7-7-7-7-7-7-7\-12-12-12-12-12-12-12-12-|-12-12-12-12-12-12-12-12-|
E|-----------------|------------------------------------------|-------------------------|


G|-----------------|-----------------|-----------------|-----------------|
D|-9-9-9-9-9-9-9-9-|-9-9-9-9-9-9-9-9-|-7-7-7-7-7-7-7-7-|-7-7-7-7-7-7-7-7-|
A|-----------------|-----------------|-----------------|-----------------|
E|-----------------|-----------------|-----------------|-----------------|


G|-----------------|-----------------|-----------------|--------s---------|
D|-9-9-9-9-9-9-9-9-|-9-9-9-9-9-9-9-9-|-7-7-7-7-7-7-7-7-|-7-7-7-7\11-------|
A|-----------------|-----------------|-----------------|------------7~~~~-|
E|-----------------|-----------------|-----------------|------------------|



ENJOY.................
Suggest correction
Give kudos to tab author, rate the tab!
1 2 3 4 5
comments
print report bad tab
guest
You may want to rate the tab now too:
select rating
Wanna post a correction for this tab? Suggest correction