Oops, an error
Loading. Please wait.

Woo Hoo bass

2,567 views 3 this week
3 commentsread comments
1 2 3 4 5
x 3
add to favorites
×
Save as Personal and add changes to this tab that will be seen only by you. Learn more ›
×
You can save this tab as Personal to edit and correct it or add notes. All changes will be seen only by you. Learn more »
launch autoscroll
font size
0
reset
guitar tuner
edit
Autoscroll
slow
fast
+/-
esc
set tempo
stop
Author
Woo Hoo by Kings of Leon

Tabbed by: riverwolf
email:thetrollcatcher@yahoo.com


Bass comes in at 0:24
with
G|---------| 
D|-19///---| 
A|---------| 
E|---------| 

Chorus
G|--------------------------14-12/------------------17-14/-----|
D|-------------------------------------------------------------|
A|-------------------------------------------------------------|
E|--------88-88-88-88-88-888-------77-77-77-77-77-777----------|

G|-------------------------------------------------------------|
D|-------------------------------------------------------------|
A|-------------------------------------------------------------|
E|-55-55-55-55-55-555--8\10////--33-33-33-33-33-333\15---------|

Verse x4
G|-------14--12---------------14----12------------|
D|-----------------14---------------------12------|
A|-12-12---12---12---12-12-12----12----12----12---| 
E|------------------------------------------------|        
                                                          
G|-----9---7-----------9---7--------|                             
D|-------------9---------------9----|                     
A|-7-7---7---7---7-7-7---7---7---7--|          
E|----------------------------------|            


Chorus

Verse

Chorus x2

Bridge
G|-------------------------------------------------------|              
D|-------------------------------------------------------|                
A|----8--7--5------8--7--5-----8--7--5-------------------|        
E|-8------------8-----------8-----------88-88-88-88-88-88| 

Chorus x2

Bridge


| /  slide up
| \  slide down
| h  hammer-on
| p  pull-off
| ~  vibrato
| +  harmonic
| x  Mute note

            
            
Suggest correction
Creating personal tab
Creating personal tab
You can edit any tab online and save it as your Personal.

You can edit, replace or remove any tab part or add personal notes – all changes will be seen only by you.

Personal tabs can be accessed anytime from any device, even offline.
Learn more »
Give kudos to tab author, rate the tab!
1 2 3 4 5
comments
print report bad tab
3 comments total.
0 reply
rkwakman 10 Oct 19, 2009 07:09 AM

i like

0 reply
riverwolf 30 May 08, 2012 10:47 AM

hey a little minor correction from me the tabber. for the main riff in the intro and chorus it shouldn't be 3 slide to 15. if u listen carefully the last notes he plays are
33-33-33-33-33-33-0-\12

0 reply
Cormacsmall 10 Apr 21, 2016 12:41 PM

Great tab, but I think in the verse, the root notes, instead of being 12 and 7, should be 15 and 10. It is a bit trickier to play, but if you keep your ring finger on the root note it's manageable.

Also, I'm not sure about the bridge as it's pretty hard to hear in the song, but I think instead of all 8s on the E string it should be 8, then open E, then 5 on the A string, and then 33-33-33-33-33-33.

I'll be giving it a proper listen tonight to try and figure it out, as I only have crappy speakers now, so I'll try and remember to comment if I either figure it out properly, or if I realise I am completely wrong and Riverwolf was right all along.

guest
You may want to rate the tab now too:
select rating
Wanna post a correction for this tab? Suggest correction