Oops, an error
Loading. Please wait.

Woo Hoo Tab

14,479 views 12 this week
no commentswrite comment
1 2 3 4 5
excellent!
x 9
add to favorites
launch autoscroll
font size
0
reset
how to read this tab
guitar tuner
Autoscroll
slow
fast
+/-
esc
set tempo
stop
Help us to improve Ultimate-Guitar.com Take our survey!
×
Author
Artist: Kings Of Leon
Song: Woo Hoo
Album: Fans B-side
Tabbed by Smagu de Bagu

Tuning: Standard Baby

My first tab mate, any corrections welcome :) Use Distortion or overdrive for the same effects.

INTRO & CHORUS:

    C
e|-----------------------------------------------------------|
B|-----------------------------------------------------------|
G|---------------------------------------------14---12~------|
D|--10-10--x-10--x-10--x-10--x-10--10-10-10------------------|
A|--10-10--x-10--x-10--x-10--x-10--10-10-10------------------|
E|---8--8--x--8--x--8--x--8--x--8---8--8--8------------------|

     B
e|-----------------------------------------------------------|
B|-----------------------------------------------------------|
G|-------------------------------------------17---14~--------|
D|---9-9---x-9---x-9---x-9---x-9---9-9-9---------------------|
A|---7-7---x-7---x-7---x-7---x-7---7-7-7---------------------|
E|---7-7---x-7---x-7---x-7---x-7---7-7-7---------------------|

     A
e|-----------------------------------------------------------|
B|-----------------------------------------------------------|
G|-------------------------------------------14---12~--------|
D|---7-7---x-7---x-7---x-7---x-7---7-7-7---------------------|
A|---7-7---x-7---x-7---x-7---x-7---7-7-7---------------------|
E|---5-5---x-5---x-5---x-5---x-5---5-5-5---------------------|

     G
e|-----------------------------------------------------------|
B|-----------------------------------------------------------|
G|-------------------------------------------7/5~------------|
D|---5-5---x-5---x-5---x-5---x-5---5-5-5---------------------|
A|---5-5---x-5---x-5---x-5---x-5---5-5-5---------------------|
E|---3-3---x-3---x-3---x-3---x-3---3-3-3---------------------|


VERSE:

     C                              G
e|-----------------------------------------------------------------------|
B|-----------------------------------------------------------------------|
G|-----------------------------------------------------------------------|   
D|---5-5-7-5-5-5-7-5--5-7-5-5-5-7----------------------------------------|
A|---3-3-3-3-3-3-3-3--3-3-3-3-3-3---5-5-7-5-5-5-7-5--5-7-5-5-5-7---------|
E|----------------------------------3-3-3-3-3-3-3-3--3-3-3-3-3-3---------|
 |                                                                       |
e|-----------------------------------------------------------------------|
B|-----------------------------------------------------------------------|
G|-----------------------------------------------------------------------|
D|---10~----------10~---------------5~------------5~---------------------|
A|---10~----------10~---------------5~------------5~---------------------|
E|----8~-----------8~---------------3~------------3~---------------------|


BRIDGE:

     C
e|------------------------------------|
B|------------------------------------|
G|---5/7/5/7/5/7/5/7/5/7/5/7/5/7/5----|
D|------------------------------------|
A|------------------------------------|
E|------------------------------------|
 |                                    |   REPEAT (X3)
e|------------------------------------|
B|------------------------------------|
G|------------------------------------|
D|---10~------------------------------|
A|---10~------------------------------|
E|----8~------------------------------|


e|----------------------------------------|
B|----------------------------------------|
G|---5/7/5/7/5/7/5/7/5/7/5/7/5/7/5~~~-----|
D|----------------------------------------|
A|----------------------------------------|
E|----------------------------------------|
 |                                        | 
e|----------------------------------------|
B|----------------------------------------|
G|----------------------------------------|
D|--10-10--x-10--x-10--x-10--x-10--10-10--|
A|--10-10--x-10--x-10--x-10--x-10--10-10--|
E|---8--8--x--8--x--8--x--8--x--8---8--8--|


LYRICS:

VERSE 1:

Love the days
She's gone for the moment
I don't know which way she was going
Lord, it's been
A long warm November
I know now
She acts like her mother
I've been holding on
Here forever
And I don't know where she's going
But hopefully
She knows not to come back now

CHORUS:

Kick in the door get on the floor
Went on a woman crying (Woo Hoo)
Somethin' to kiss the night away
When I'm taking back that (Woo Hoo)
Baby, you know that I can hold my own
When I'm feeling (Woo Hoo)
Baby, you know, that I could just sail away

VERSE 2:

Gone away
So gone in the moment
Still couldn't tell
Which way she was going
Shaping up
And growing right on me
Taking my advice
Like a father
I've been holding on
Here forever
And I don't know where she's going
But hopefully
She knows not to turn around

REPEAT CHORUS (X2)

BRIGDE:

She's going to cry when the storm comes
And it'll come, and it'll come, and it'll come
Still she says, "Can't get none".

REPEAT CHORUS (X2)

REPEAT BRIDGE (X1)


| /  slide up
| \  slide down
| h  hammer-on
| p  pull-off
| ~  vibrato
| +  harmonic
| x  Mute note                           Chris0505@hotmail.co.uk
===============================================================================
Suggest correction
What's this?
You can suggest a correction to this tab. Community and Mods will review your correction and vote to approve or reject it.
comments
print report bad tab
guest
You may want to rate the tab now too:
select rating
Please do not post tabs as comments. Select "correction" instead!