Oops, an error
Loading. Please wait.

Work On Me tab

version 1
version 1

Whole song

Interactive

6,843 views 18 this week
4 commentsread comments
1 2 3 4 5
x 8
add to favorites
×
Save as Personal and add changes to this tab that will be seen only by you. Learn more ›
×
You can save this tab as Personal to edit and correct it or add notes. All changes will be seen only by you. Learn more »
launch autoscroll
font size
0
reset
how to read this tab
guitar tuner
edit
Autoscroll
slow
fast
+/-
esc
set tempo
stop
Author
Difficulty
-----------------------------------------------------------------------------
                             Work on Me - Kings of Leon
-----------------------------------------------------------------------------
Tabbed by: cdberger
Email: cdberger98@gmail.com
Album: Mechanical Bull

Tuning: Standard

Looks like I'm the first one on the entire Internet to tab this song. I
apologize if anything is wrong I did this entirely by ear because there is
nothing else on the Internet. This is a probably my favorite song from this
album. Please leave any corrections or email me.
Enjoy!

Intro:

e|-------7----------7---|
B|-----7---9------7---9-|
G|---8----------8-------|
D|-9---------9----------|
A|----------------------|
E|----------------------|

e|-12--9----9----------------------------------12--9----9-----|
B|-------12---12--9-----9----------------------------12---12b-|
G|-------------------11---11--9----9--------------------------|
D|------------------------------11---11--9--------------------|
A|-----------------------------------------11-----------------|
E|------------------------------------------------------------|

e|-12--9----9---------------------------------12--9----9------------------|
B|-------12---12--9-----9---------------------------12---12b--12b--9--12--|
G|-------------------11---11--9----9--------------------------------------|
D|------------------------------11---11--9--------------------------------|
A|-----------------------------------------11-----------------------------|
E|------------------------------------------------------------------------|

Verse 1 (Guitar 1 is also played during intro)

Guitar 1

e|------------------------------|
B|------------------------------|
G|------------------------------|
D|-6--7--6--4--7--6--7--6--4--7-|
A|-7--9--7--6--6--7--9--7--6--6-|
E|------------------------------|

Guitar 2
The strumming is easy to figure out just listen to the song
e|--------------|
B|--------------|
G|-9--11--13--8-|
D|-x--x---x---x-|
A|-7--9---11--6-|
E|--------------|

Chorus

e|-------7----------7---|
B|-----7---9------7---9-|
G|---8----------8-------|
D|-9---------9----------|
A|----------------------|
E|----------------------|

Verse 2

Guitar 1

e|------------------------------|
B|------------------------------|
G|------------------------------|
D|-6--7--6--4--7--6--7--6--4--7-|
A|-7--9--7--6--6--7--9--7--6--6-|
E|------------------------------|

Guitar 2

e|--------------|
B|--------------|
G|-9--11--13--8-|
D|-x--x---x---x-|
A|-7--9---11--6-|
E|--------------|

Chorus

e|-------7----------7---|
B|-----7---9------7---9-|
G|---8----------8-------|
D|-9---------9----------|
A|----------------------|
E|----------------------|

Solo

e|---------------------|
B|--Currently-working--|
G|------on-the-solo----|
D|-----email-me-if-----|
A|-------you-can-help--|
E|---------------------|

Bridge

...get on your way...

Guitar 1

e|------------------------------|
B|------------------------------|
G|------------------------------|
D|-6--7--6--4--7--6--7--6--4--7-|
A|-7--9--7--6--6--7--9--7--6--6-|
E|------------------------------|

Guitar 2

e|-------7----------7---|
B|-----7---9------7---9-|
G|---8----------8-------|
D|-9---------9----------|
A|----------------------|
E|----------------------|

Chorus/Outro

Guitar 1

e|--------------|
B|--------------|
G|-9--11--13--8-|
D|-x--x---x---x-|
A|-7--9---11--6-|
E|--------------|

Guitar 2

e|-12--9----9---------------------------------12--9----9--------------------|
B|-------12---12--9-----9---------------------------12---12b--12b--12b--12b-|
G|-------------------11---11--9----9----------------------------------------|
D|------------------------------11---11--9----------------------------------|
A|-----------------------------------------11-------------------------------|
E|--------------------------------------------------------------------------|

e|-12--9----9---------------------------------12--9----9-----------------|
B|-------12---12--9-----9---------------------------12---12--9----9------|
G|-------------------11---11--9----9---------------------------11---11b--|
D|------------------------------11---11--9-------------------------------|
A|-----------------------------------------11----------------------------|
E|-----------------------------------------------------------------------|

e|-------7----------7-----|
B|-----7---9------7---9---|
G|---8----------8--------8|
D|-9---------9-----------9|
A|------------------------|
E|------------------------|

************************************

| x   Mute note
| b   Bend

************************************

It may not be 100% correct but it's pretty close. Email me or comment with
any corrections. Thanks!

            
            
Suggest correction
Creating personal tab
Creating personal tab
You can edit any tab online and save it as your Personal.

You can edit, replace or remove any tab part or add personal notes – all changes will be seen only by you.

Personal tabs can be accessed anytime from any device, even offline.
Learn more »
comments
print report bad tab
4 comments total. Showing first comments.
+1 reply
Gerrad1234 10 Oct 24, 2013 12:44 PM

Could you please tab tonight as I can't find it any were on the internet

+1 reply
theadityabhatta 10 Jun 07, 2014 03:08 AM

Hey, great tab, but I think the intro goes a bit like this:
e|-------7----------7---|
B|-----7---9------7---9-|
G|---8----------8-------|
D|-9---------9----------|
A|----------------------|
E|----------------------|

0 reply
StuWakley 199 Apr 11, 2016 05:53 AM

anyone know the chords?

guest
You may want to rate the tab now too:
select rating
Wanna post a correction for this tab? Suggest correction