Oops, an error
Loading. Please wait.

Vampire Killer Tab

6,142 views 15 this week
no commentswrite comment
1 2 3 4 5
x 4
add to favorites
launch autoscroll
font size
0
reset
how to read this tab
guitar tuner
×
Best way to learn
"Vampire Killer"
Autoscroll
slow
fast
+/-
esc
set tempo
stop
Author
Song: Vampire Killer
Artist Kinuyo Yamashita
Video: Schattenjager
Vid: http://uk.youtube.com/watch?v=lnedHQEGKmg

I'm 99% sure this is right, I really like this theme when I heard Schattenjager play it, 
I tabbed and thought you guy's might appreciate it.

-------------------------------------------------------------|
-------------------------14-11----11-14-14/17-14-------------|
-------11-12-11/10-12-14-------12----------------------------|
-12-13-------------------------------------------------------|
-------------------------------------------------------------|
-------------------------------------------------------------|

-------------------------------------------------------------|
:15-15-15-13-12-------------------------13-13-15-15-15-13-12-|
:------------------------12-14----14-12----------------------|
:---------------12h14h15-------12----------------------------|
:------------------------------------------------------------|
-------------------------------------------------------------|

---------------------------------17-16h17h16---17-17-16-15-15-15-|
------------------------------15-------------18------------------|
----------12-14----14-12-----------------------------------------|
-12h14h15-------12-------10-10-----------------------------------|
-----------------------------------------------------------------|
-----------------------------------------------------------------|


17-17-17-16-15--17-16h17p16--17-17-16-15-15-15-17-17-16-15----|
--------------15-----------18---------------------------------|
-----------------------------------------------------------18-|
--------------------------------------------------------------|
--------------------------------------------------------------|
--------------------------------------------------------------|

----18-17---------18-17-------18-17-------15-18-17-18-20|22-22-22-|
-17------18-----17-----18---17-----18--18-------------------------|
-----------19-18----------18---------19---------------------------|
------------------------------------------------------------------|
------------------------------------------------------------------|
------------------------------------------------------------------|

-------------------------------22-22-22------------------------------|----|
---------------------------------------------------------------------|----|
19-------------------------------------19----------------------------|----|
------------12-15---------14-17-------------------12-15---------14-17|15--|
---13-13-13------15-15-15-----------------13-13-13-----15-15-15------|----|
---------------------------------------------------------------------|----|

Repeat once from marker and hit the last note only on the second run through.

Cheer's!

Tye1989
Suggest correction
comments
print report bad tab
guest
You may want to rate the tab now too:
select rating
Wanna post a correction for this tab? Suggest correction