Oops, an error
Loading. Please wait.

Big Mistake Tab

479 views 1 this week
no commentswrite comment
1 2 3 4 5
2 more votes to show rating
add to favorites
launch autoscroll
font size
0
reset
how to read this tab
guitar tuner
Autoscroll
slow
fast
+/-
esc
set tempo
stop
Help us to improve Ultimate-Guitar.com Take our survey!
×
Author
Difficulty
novice
    ________________________________
   / Kira and the Kindred Spirits  /  Jeg tror at denne sang handler om dengang,
  / Big Mistake                   /  da Kira slog op med sin gamle kæreste i USA
 / This Is Not An Exit           /  som var ude i noget misbrug af en art. Den
/_______________________________/  handler også om den følelse af at være helt
                                  alene i verden, der efter hun havde slået op.


1. Vers:
  Am                                F
|---------------------------------|---------------------------------|
|---1---1---1---1---1---1---1---1-|---1---1---1---1---1---1---1---1-|
|-----2-------2-------2-------2---|-----2-------2-------2-------2---|
|---------------------------------|---------------------------------|
|-0---------------0---------------|---------------------------------|
|---------------------------------|-1---------------1---------------|

  Dm7(no3)                          F       G       Am
|---------------------------------|---------------------------------|
|---1---1---1---1---1---1---1---1-|---1-------0-----0h1-------------|
|-----2-------2-------2-------2---|-------2-------0-0h2-------------|
|-0---------------0---------------|-----3-------0-------------------|
|---------------------------------|---------------------------------|
|---------------------------------|-1------(3)----------------------|


2. Vers:
magen til første bortset fra den sidste takt:
  E       /F#     /B
|---------------------------------|
|---------------------------------|
|---1---1---1---1-----------------|
|-----2-------2-------------------|
|-----------------2---------------|
|-0-------2-----------------------|



Omkvæd:
  F                                 C
|---------------------------------|---------------------------------|
|---1---1---1---1---1---1---1---1-|---1---1---1---1---1---1---1---1-|
|-----2-------2-------2-------2---|-----0-------0-------0-------0---|
|---------------------------------|---------------------------------|
|---------------------------------|-3---------------3---------------|
|-1---------------1---------------|---------------------------------|

  G                                 Am
|---------------------------------|---------------------------------|
|---0---0---0---0---0---0---0---0-|---1---1---1---1---1---1---1---1-|
|-----0-------0-------0-------0---|-----2-------2-------2-------2---|
|---------------------------------|---------------------------------|
|---------------------------------|-0---------------0---------------|
|-3---------------3---------------|---------------------------------|

  F                                 C
|---------------------------------|---------------------------------|
|---1---1---1---1---1---1---1---1-|---1---1---1---1---1---1---1---1-|
|-----2-------2-------2-------2---|-----0-------0-------0-------0---|
|---------------------------------|---------------------------------|
|---------------------------------|-3---------------3---------------|
|-1---------------1---------------|---------------------------------|

  Dm7                               E       /F#     /G#
|---1---1---1---1---1---1---1---1-|---------------------------------|
|-----1-------1-------1-------1---|---------------------------------|
|---------------------------------|---1---1---1---1-----------------|
|-0---------------0---------------|-----2-------2-------------------|
|---------------------------------|---------------------------------|
|---------------------------------|-0-------2-------3/4-------------|



Mellemspil:
  G#m             G#m/F#            E7(no3)
|---------------------------------|---------------------------------|
|-----------4---------------4-----|---3-------3-------3-------------|
|---4---4-------4---4---4-------4-|-------4-------4-------4---------|
|---------------------------------|-----2-------2-------2-----------|
|-----6-------6-------6-------6---|---------------------------------|
|-4-------4------(2)-----(2)------|-0-------0-------0-------0-------|



3. Vers:
En banjo/travel guitar spiller det her, mens guitaren bare slår bastonerne an:
|-----x-0-------------x-0---------|-----x-0-------------x-0---------|
|-----x-1-----1-------x-1-----1---|-----x-1-----1-------x-1-----1p0-|
|-----x---0h2---2-----x---0h2---2-|-----x---0h2---2-----x---0h2-----|
|-2---x-----------2---x-----------|-3---x-----------3---x-----------|
|---------------------------------|---------------------------------|
|---------------------------------|---------------------------------|

|-----x-0-----x-------x-0---------|---1-----1-----1-----------------|
|-----x-1-----x-3-----x-1-----0-1-|-----1-----0-----1---------1-0---|
|-----x---0h2-x-------x---0h2-----|-------2-----2---0h2-----------0-|
|-0---x-------x---0---x-----------|-3-------------------------------|
|---------------------------------|---------------------------------|
|---------------------------------|---------------------------------|


4. Vers:
Igen er sidste takt anderledes
|---0-----------------------------|
|-----0-----0---------------------|
|-------1-2---2-1-1---------------|
|-2-------------------------------|
|---------------------------------|
|---------------------------------|



Omkvæd:
magen til før, mens banjoen/travel guitaren spiller nogenlunde det samme



Mellemspil:
magen til før, men anden omgang bliver alting rykket en halv tone op,
dvs. et bånd op. Det bliver spillet på samme måde, så ingen hokus-pokus i det



------------------------------------------------------------------------------
 12th /June /06
 Just mail me at Maitinin@gmail.com with questions, comments and corrections!
------------------------------------------------------------------------------



 " Maitinin writing here - the author of this tab.

   The past 11 years, I have generated 10,318,000 views and 815 top-rated tabs for this site.
   If you want to support an eager contributor like me, check out my own site:


   _____  http://www.PlayLikeTheGreats.com  _____


   Here I will continue to upload and improve my transcriptions.

   Best regards,
   Maitinin

   July, 2015 "
Suggest correction
Give kudos to tab author, rate the tab!
1 2 3 4 5
comments
print report bad tab
guest
You may want to rate the tab now too:
select rating
Wanna post a correction for this tab? Suggest correction