Oops, an error
Loading. Please wait.

Mirai E tab

version 1
version 1

Whole song

Interactive

by Kiroro
24,705 views 153 this week
2 commentsread comments
1 2 3 4 5
x 7
add to favorites
×
Save as Personal and add changes to this tab that will be seen only by you. Learn more ›
×
You can save this tab as Personal to edit and correct it or add notes. All changes will be seen only by you. Learn more »
launch autoscroll
font size
0
reset
how to read this tab
guitar tuner
edit
Autoscroll
slow
fast
+/-
esc
set tempo
stop
Author
Difficulty
Artist: kiroro
Song: Mirai e
Tabbed by: Jhoseph N. la Rosa
Email: darkseeker_357@yahoo.com

[Intro]
E|--5-5-6-5-5-6-5-5-6-5-5--6--6-8-6--6-8-6--6-5-3---|
B|--6-6---6-6---6-6---6-6--6--6---6--6---6--6---5---|
G|---5-----5-----5-----5-5-7-7----7-7----7-7----5---|
D|--------------------------------------------------|
A|--------------------------------------------------|
E|--------------------------------------------------|

[Verse 1]
E|-5-\3-1----1-1-2-5-6-5--6-3-1-3-0-0-1--|---------(1)6-5------|
B|---------------------------------------|-3-3-5-6--6-----5-5--|
G|---------------------------------------|---------------------|
D|---------------------------------------|---------------------|
A|---------------------------------------|---------------------|
E|---------------------------------------|---------------------|
   Hora     ashimoto wo mitegoran Kore ga  anata no ayumu michi

E|--------10-8-6-5-6-8~-------|-6-5-6--6-6-5-3-1-0-3\1-|
B|-6\5-3----------------6-6---|------------------------|
G|----------------------------|------------------------|
D|----------------------------|------------------------|
A|----------------------------|------------------------|
E|----------------------------|------------------------|
   Hora   mae wo mitegoran      Are ga anata no mirai

[Verse 2]
E|-1-0-1--------------------------------|------------------------|
B|--------------1----3-3-3-1---3-1------|------1-1-----1----3-3--|
G|----------2-3--------------3-----0-2--|-3----------2-----------|
D|--------------------------------------|------------------------|
A|--------------------------------------|------------------------|
E|--------------------------------------|------------------------|
  Haha ga  kureta   takusan no yasashisa   Ai wo      idaite

E|-------1-1h3-0----------|-1-0-1-0.1-------|----------------------------|
B|---1-3---------3-5-3\1--|---------------1-|-3-1-------------2-2-1-2\1--|
G|-3----------------------|-----------2h3---|-----3-2.3---3.3------3-----|
D|------------------------|-----------------|----------------------------|
A|------------------------|-----------------|----------------------------|
E|------------------------|-----------------|----------------------------|
   ayume to kurikaeshita   Ano toki wa mada  osanakute  imi nado shiranai 

E|---0.1~1-1-3-5--5-6-5-3-1-5\3-|---0.0--0-1-3.3-1.1-----|
B|-3----------------------------|-3----------------------|
G|------------------------------|------------------------|
D|------------------------------|------------------------|
A|------------------------------|------------------------|
E|------------------------------|------------------------|
   Sonna watashi no te wo nigiri Issho ni ayundekita

[Verse 3]
E|-1-0-1--------------------------------|-----------------------|
B|-------------1----3-3-3-1---3-1-------|---------1.1-----1-----|
G|---------2-3--------------3-----3-2---|-2-3.3.3-------2---3---|
D|--------------------------------------|-----------------------|
A|--------------------------------------|-----------------------|
E|--------------------------------------|-----------------------|
  Yume wa itsumo    sora takaku aru kara  Todokanakute kowai ne

E|-------1-1-3-0-----------|-1-0.1-0----------------------------|
B|---1-3---------3-5.3.1---|-------------3-1---3-1--------------|
G|-3-----------------------|---------2-3-----------3-2.3~-------|
D|-------------------------|------------------------------------|
A|-------------------------|------------------------------------|
E|-------------------------|------------------------------------|
   dakedo oitsuzukeru no    Jibun no SUTOORII  dakara koso

E|-----------------|---0.1~1-1-3-5--5-6-5-3-1-5\3-|---0.0--0-1-3.3-1.1-----|
B|---2-2.2-1-2/1---|-3----------------------------|-3----------------------|
G|-3--------3------|------------------------------|------------------------|
D|-----------------|------------------------------|------------------------|
A|-----------------|------------------------------|------------------------|
E|-----------------|------------------------------|------------------------|
   akirametakunai    Fuan ni naru to te wo nigiri  Issho ni ayundekita

[Verse 4]
E|-----6-5-6.3-----------8-6-8-6.5------|-5.5.3-----------------5-5-3.3---|
B|-3.3-------------3.5.5----------------|------6---3.3.5.6--3-3-----------|
G|--------------------------------------|---------------------------------|
D|--------------------------------------|---------------------------------|
A|--------------------------------------|---------------------------------|
E|--------------------------------------|---------------------------------|
  sono yasashi wo toki ni wa iyagari      Hanareta haha e sunao ni narezu

[Verse 1]
E|-5-\3-1----1-1-2-5-6-5--6-3-1-3-0-0-1--|---------(1)6-5------|
B|---------------------------------------|-3-3-5-6--6-----5-5--|
G|---------------------------------------|---------------------|
D|---------------------------------------|---------------------|
A|---------------------------------------|---------------------|
E|---------------------------------------|---------------------|
   Hora     ashimoto wo mitegoran Kore ga  anata no ayumu michi

E|--------10-8-6-5-6-8~-------|-6-5-6--6-6-5-3-1-0-3\1-|
B|-6\5-3----------------6-6---|------------------------|
G|----------------------------|------------------------|
D|----------------------------|------------------------|
A|----------------------------|------------------------|
E|----------------------------|------------------------|
   Hora   mae wo mitegoran      Are ga anata no mirai

[Verse 4]
E|-----6-5-6.3-----------8-6-8-6.5------|-5.5.3-----------------5-5-3.3---|
B|-3.3-------------3.5.5----------------|------6---3.3.5.6--3-3-----------|
G|--------------------------------------|---------------------------------|
D|--------------------------------------|---------------------------------|
A|--------------------------------------|---------------------------------|
E|--------------------------------------|---------------------------------|
  sono yasashi wo toki ni wa iyagari      Hanareta haha e sunao ni narezu

[Verse 1]
E|-5-\3-1----1-1-2-5-6-5--6-3-1-3-0-0-1--|---------(1)6-5------|
B|---------------------------------------|-3-3-5-6--6-----5-5--|
G|---------------------------------------|---------------------|
D|---------------------------------------|---------------------|
A|---------------------------------------|---------------------|
E|---------------------------------------|---------------------|
   Hora     ashimoto wo mitegoran Kore ga  anata no ayumu michi

E|--------10-8-6-5-6-8~-------|-6-5-6--6-6-5-3-1-0-3\1-|
B|-6\5-3----------------6-6---|------------------------|
G|----------------------------|------------------------|
D|----------------------------|------------------------|
A|----------------------------|------------------------|
E|----------------------------|------------------------|
   Hora   mae wo mitegoran      Are ga anata no mirai

[Verse 5]
E|----------8-6-5.6~---|---6---6-6-5-3-------------------|
B|---5.6---------------|-6------------6.6-6-6-6~~~-------|
G|-5~----5-------------|---------------------------------|
D|---------------------|---------------------------------|
A|---------------------|---------------------------------|
E|---------------------|---------------------------------|
  Mirai e mukatte       yukkuri to aruite yukou


************************************

| (n)  Ghost note
| \    Slide down
| ~    Vibrato
| h    Hammer-on
| /    Slide up

************************************

            
            
Suggest correction
Creating personal tab
Creating personal tab
You can edit any tab online and save it as your Personal.

You can edit, replace or remove any tab part or add personal notes – all changes will be seen only by you.

Personal tabs can be accessed anytime from any device, even offline.
Learn more »
comments
print report bad tab
2 comments total.
0 reply
wiwit619 10 May 08, 2013 04:25 PM

little corect ^_^ on
ayu"MU" michi
I.
E|-5-\3-1----1-1-2-5-6-5--6-3-1-3-0-0-1--|---------(1)--5------|
B|---------------------------------------|-3-3-5-6--6-8---5-5--|
G|---------------------------------------|---------------------|
D|---------------------------------------|---------------------|
A|---------------------------------------|---------------------|
E|---------------------------------------|---------------------|
Hora ashimoto wo mitegoran Kore ga anata no ayumu michi

0 reply
gray_fullbuster 10 May 15, 2013 03:30 AM

boy ur good..

guest
You may want to rate the tab now too:
select rating
Wanna post a correction for this tab? Suggest correction