Oops, an error
Loading. Please wait.

Highschool Of The Dead Tab

843 views 1 this week
no commentswrite comment
1 2 3 4 5
2 more votes to show rating
add to favorites
launch autoscroll
font size
0
reset
how to read this tab
guitar tuner
Autoscroll
slow
fast
+/-
esc
set tempo
stop
Help us to improve Ultimate-Guitar.com Take our survey!
×
Author
Difficulty
intermediate
Tom: 
                

E|------------------------------|
B|------------------------------|
G|------7-9-9-9-----------------| (4x)
D|-9--9---------7-7-7--8-8-8----|
A|------------------------------|
E|------------------------------|



E|----------------------------------------------------|
B|----------------------------------------------------|
G|-7-7--9--7-7---7-7--9--7-7--7-7-6-6--12-11-11-9-7---|
D|-5-5--7--5-5---5-5--7--5-5--5-5-4-4--10--9--9-7-5---|
A|----------------------------------------------------|
E|----------------------------------------------------|



E|-----------------------------/17-17-15-----/15------|
B|--------------------------------------13-12---------|
G|-7-7--9--7-7---7-7--14--7-7-------------------------|
D|-5-5--7--5-5---5-5--12--5-5-------------------------|
A|----------------------------------------------------|
E|----------------------------------------------------|



E|--------------------------------------------------------------------|
B|--------------------------------------------------------------------|
G|-9-9-x-9-9-9-x-x-7-7-x-7-7-7-x-x-5-5-x-5-5-5-x-x-7-7-x-7-7-7-x-x----|
D|-9-9-x-9-9-9-x-x-7-7-x-7-7-7-x-x-5-5-x-5-5-5-x-x-7-7-x-7-7-7-x-x----|
A|-7-7-x-7-7-9-x-x-5-5-x-5-5-5-x-x-3-3-x-3-3-3-x-x-5-5-x-5-5-5-x-x----|
E|--------------------------------------------------------------------|



E|-------------------------------------------------------------|
B|-------------------------------------------------------------|
G|-----------------5-5-x-5-5-5-x-x-7-7-x-7-7-7-x-x-9-9-9-5-----|
D|-7-7-x-7-7-7-x-x-5-5-x-5-5-5-x-x-7-7-x-7-7-7-x-x-9-9-9-5-----|
A|-7-7-x-7-7-7-x-x-3-3-x-3-3-3-x-x-5-5-x-5-5-5-x-x-7-7-7-3-----|
E|-5-5-x-5-5-5-x-x---------------------------------------------|



E|----------------------------------------------------------|
B|----------------------------------------------------------|
G|-2---------2--4---------4--5---------5--4-4-4-4-4-4-4-4---|
D|-2---------2--4---------4--5---------5--4-4-4-4-4-4-4-4---|
A|-0-0-0-0-0-0--2-2-2-2-2-2--3-3-3-3-3-3--2-2-2-2-2-2-2-2---|
E|----------------------------------------------------------|
      x x x x         x x x x         x x x x



E|----------------------------------------------|
B|----------------------------------------------|
G|---2----5--------------5----4----5----7-------|
D|---2----5----5----7----5----4----5----7-------|
A|---0----3----5----7----3----2----3----5-------|
E|-------------3----5---------------------------|



E|------------------------------|
B|------------------------------|
G|----4--3--2--0----------------| (8x)
D|--2------------0--------------|
A|------------------------------|
E|------------------------------|
Suggest correction
Give kudos to tab author, rate the tab!
1 2 3 4 5
comments
print report bad tab
guest
You may want to rate the tab now too:
select rating
Wanna post a correction for this tab? Suggest correction