Oops, an error
Loading. Please wait.
286 views 1 this week
no commentswrite comment
1 2 3 4 5
3 more votes to show rating
add to favorites
×
Save as Personal and add changes to this tab that will be seen only by you. Learn more ›
×
You can save this tab as Personal to edit and correct it or add notes. All changes will be seen only by you. Learn more »
launch autoscroll
font size
0
reset
guitar tuner
edit
Autoscroll
slow
fast
+/-
esc
set tempo
stop
世界を超えて

Intro 0:07
G|----------------------------------------------------------------------|
D|----------------------------------------------------------------------|
A|--------------------1---1-1-1-1-1-1-----------------3---3-3-3-3-3-3---|
D|-12\0---0-3-0-3-0-0-----------------3---3-3-3-3-3-3-----------------0-|
   4  + 1 + 2 + 3 + 4 + 1 + 2 + 3 + 4 + 1 + 2 + 3 + 4 + 1 + 2 + 3 + 4 +

G|-----------------------------------------------------------------|
D|-----------------------------------------------------------------|
A|-------------0-1---1-1-1-1-1-1-----------------3---3-------------|
D|---0-3-0-3-5-------------------3---3-3-3-3-3-3---------0--/10\-0-|
   1 + 2 + 3 + 4 + 1 + 2 + 3 + 4 + 1 + 2 + 3 + 4 + 1 + 2 + 3 + 4 +

Verse 0:16
G|-----------------------------------------------------------------|
D|-----------------------------------------------------------------|
A|-------------------------------3-------------------------------2-|
D|-----------------------------------------------------------------|
   1 + 2 + 3 + 4 + 1 + 2 + 3 + 4 + 1 + 2 + 3 + 4 + 1 + 2 + 3 + 4 +

G|-----------------------------------------------------------------|
D|-----------------------------------------------------------------|
A|---------------1---------------0---------------------------------|
D|-----------------------------------------------0-------5/17\---0-|
   1 + 2 + 3 + 4 + 1 + 2 + 3 + 4 + 1 + 2 + 3 + 4 + 1 + 2 + 3 + 4 +

0:26
G|-----------------------------------------------------------------|
D|----------------------------------------------------------=------|
A|-------------------------------1---1-1-1-1-1-1-3---3-3-3-3-3-3---|
D|---0-0-0-0-0-0-3---3-3-3-3-3-3---------------------------------0-|
   1 + 2 + 3 + 4 + 1 + 2 + 3 + 4 + 1 + 2 + 3 + 4 + 1 + 2 + 3 + 4 +

G|-----------------------------------------------------------------------|
D|---------------------------------------------3/10---10-10-10-----------|
A|-------------------------------1---1-1-1-1-1-----------------10-10-8-1-|
D|---0-0-0-0-0-0-3---3-3-3-3-3-3-----------------------------------------|
   1 + 2 + 3 + 4 + 1 + 2 + 3 + 4 + 1 + 2 + 3 + 4 +  1 +  2  +  3  +  4 +

G|---------------------------------------------------5-------5-----|
D|---------------3---2---2-2-3-----------------3-5---------5-------|
A|---1-1-1-1-1-1---------------0-3---3-3---3-5-----------------3---|
D|---------------------------------------------------------------0-|
   1 + 2 + 3 + 4 + 1 + 2 + 3 + 4 + 1 + 2 + 3 + 4 + 1 + 2 + 3 + 4 +

G|-----------------------------------------------------------------|
D|-----------------------------------------------------------------|
A|-----------------------------0---------------------1---3---4---1-|
D|---0-3-0-0-3-0-0---0-3-0-3-5---0---0-3-0-0-3-0---0---------------|
   1 + 2 + 3 + 4 + 1 + 2 + 3 + 4 + 1 + 2 + 3 + 4 + 1 + 2 + 3 + 4 +

Pre Chorus 0:44
G|-----------------------------------------------------------------|
D|-----------------------------------------------------------------|
A|---1-1-1-1---2-2---2---2---2---3---3-3-3-3---4-4---4---4---4---1-|
D|-----------------------------------------------------------------|
   1 + 2 + 3 + 4 + 1 + 2 + 3 + 4 + 1 + 2 + 3 + 4 + 1 + 2 + 3 + 4 +

G|-----------------------------------------------------------------|
D|-----------------------------------------------------------------|
A|-----1-1-1-1-1-1-1-1-1-1-1-1-1-0---------------------------------|
D|---------------------------------------------0-4---4-4-4-------3-|
   1 + 2 + 3 + 4 + 1 + 2 + 3 + 4 + 1 + 2 + 3 + 4 + 1 + 2 + 3 + 4 +

Chorus 0:53 
G|-------------------------------------------------------------------|
D|o-----------------------------------------------------------------o|x3
A|o---------------4---4-4---4-4-4-6---6-6---6-6-6-------------------o|
D|----3-3---3-3-3---------------------------------6---6-6---6-6-6-3--|
    1 + 2 + 3 + 4 + 1 + 2 + 3 + 4 + 1 + 2 + 3 + 4 + 1 + 2 + 3 + 4 +

G|-----------------------------------------------------------------|
D|-----------------------------------------------6---6-6---6-6-----|
A|---------------4---4-4---4-4-4-6---6-6-6-6-6-6---------------3-4-|
D|---3-3---3-3-3---------------------------------------------------|
   1 + 2 + 3 + 4 + 1 + 2 + 3 + 4 + 1 + 2 + 3 + 4 + 1 + 2 + 3 + 4 +

1:12
G|-------------------------------------------------13-12---13-13-13-13-15-15---|
D|-------------------------------------------10-13-----------------------------|
A|---4-4-4-4-4-4-6---6-6-6-6-6-6-8---8-10-11---------------------------------4-|
D|-----------------------------------------------------------------------------|
   1 + 2 + 3 + 4 + 1 + 2 + 3 + 4 + 1 + 2  +  3  +  4  +  1 +  2  +  3  +  4  +

G|-----------------------------------------------------------------|
D|-----------------------------------------------------------------|
A|---4-4-4-4-4-4-6---6-6-6-6-6-------------------------------------|
D|-----------------------------1-3---3-3-3-3-3-1-3--------/15\---0-|
   1 + 2 + 3 + 4 + 1 + 2 + 3 + 4 + 1 + 2 + 3 + 4 + 1 + 2 + 3 + 4 +

Interlude 1:22
G|-----------------------------------------------------------------|
D|-----------------------3-2---------------------------------------|
A|-------------------0-------3-----------------------0-------------|
D|---0-3-0-3-0-0-5---------------0---0-3-0-3-0-0-5-------1-1-1-1-0-|
   1 + 2 + 3 + 4 + 1 + 2 + 3 + 4 + 1 + 2 + 3 + 4 + 1 + 2 + 3 + 4 +

G|-----------------------------------------------------------------|
D|-----------------------3-2---------------------------------------|
A|-------------------0-------3-----------------------0-------------|
D|---0-3-0-3-0-0-5---------------0---0-3-0-3-0-0-5-------1---1---0-|
   1 + 2 + 3 + 4 + 1 + 2 + 3 + 4 + 1 + 2 + 3 + 4 + 1 + 2 + 3 + 4 +

Verse 1:31
G|------------------------------------------------------------------|
D|------------------------------------------------------------------|
A|--------------------------------3---3---3-3-3---3---3---3-3-3---2-|
D|--/12\--0-0-0---0---0---0-0-0-------------------------------------|
   1 +  2 + 3 + 4 + 1 + 2 + 3 + 4 + 1 + 2 + 3 + 4 + 1 + 2 + 3 + 4 +

G|-----------------------------------------------------------------|
D|-----------------------------------------------------------------|
A|---2---2-2-2---1---1---1-1-1---7---5-----------------------------|
D|---------------------------------------5---3---0--------/12\---0-|
   1 + 2 + 3 + 4 + 1 + 2 + 3 + 4 + 1 + 2 + 3 + 4 + 1 + 2 + 3 + 4 +

1:40
G|-----------------------------------------------------------------|
D|-----------------------------------------------------------------|
A|---------------1---1-1-1-1-1-1-4---4-4-4-4-4-4-5-5-5-5-5-5-5---1-|
D|---0-0-0-0-0-0---------------------------------------------------|
   1 + 2 + 3 + 4 + 1 + 2 + 3 + 4 + 1 + 2 + 3 + 4 + 1 + 2 + 3 + 4 +

G|------------------------------------------------------------------------|
D|----------------------------------------------/12---12-12-12-12---------|
A|---1-1-1-1-1-1-0---0-0-0-0-0-0-3---3-3-3-3-3-3------------------12-10-0-|
D|------------------------------------------------------------------------|
   1 + 2 + 3 + 4 + 1 + 2 + 3 + 4 + 1 + 2 + 3 + 4 +  1 +  2  +  3  +  4  +

Pre Chorus 1:50
G|-----------------------------------------------------------------|
D|---------------------------------------------------2---3---5-----|
A|---0---0---0---1---1---1---1---3---3---3---3---5-----------------|
D|-----------------------------------------------------------------|
   1 + 2 + 3 + 4 + 1 + 2 + 3 + 4 + 1 + 2 + 3 + 4 + 1 + 2 + 3 + 4 +

G|-----------------------------------------------------------------|
D|-----------------------------------------------------------------|
A|-----------------------------------------------------------------|
D|-------------------------------8---7---7---5---7----/12\/12\-0-3-|
   1 + 2 + 3 + 4 + 1 + 2 + 3 + 4 + 1 + 2 + 3 + 4 + 1 + 2 + 3 + 4 +


Chorus 1:59
G|-------------------------------------------------------------------|
D|o-----------------------------------------------------------------o|
A|o---------------4---4-4---4-4-4-6---6-6---6-6-6-------------------o|
D|----3-3---3-3-3---------------------------------6---6-6---6-6-6-3--|
    1 + 2 + 3 + 4 + 1 + 2 + 3 + 4 + 1 + 2 + 3 + 4 + 1 + 2 + 3 + 4 +

G|-----------------------------------------------------------------|
D|-----------------------------------------------------------------|
A|---------------4---4-4---4-4-4-6---6-6---6-6-6-------------------|
D|---3-3---3-3-3---------------------------------6---6-6-6-6-6-6-3-|
   1 + 2 + 3 + 4 + 1 + 2 + 3 + 4 + 1 + 2 + 3 + 4 + 1 + 2 + 3 + 4 +

G|-----------------------------------------------------------------|
D|-----------------------------------------------6---6-6-6-6-6-6---|
A|---------------4---4-4---4-4-4-6---6-6-6-6-6-6-----------------1-|
D|---3-3---3-3-3---------------------------------------------------|
   1 + 2 + 3 + 4 + 1 + 2 + 3 + 4 + 1 + 2 + 3 + 4 + 1 + 2 + 3 + 4 +

Bridge 2:17
G|-----------------------------------------------------------------|
D|-----------------------------------------------------------------|
A|--------------/3-----------------------------------------------1-|
D|-------------------------------3---------------6---------6-\-----|
   1 + 2 + 3 + 4 + 1 + 2 + 3 + 4 + 1 + 2 + 3 + 4 + 1 + 2 + 3 + 4 +

G|-----------------------------------------------------------------|
D|-----------------------------------------------------------------|
A|-----1---1---1-3-----3---3---3-4-----4---4---4-6---6-6---6-6---4-|
D|-----------------------------------------------------------------|
   1 + 2 + 3 + 4 + 1 + 2 + 3 + 4 + 1 + 2 + 3 + 4 + 1 + 2 + 3 + 4 +

Solo 2:27
G|-----------------------------------------------------------------|
D|-----------------------------------------------5-6-5-----6-5-----|
A|---4-4---4-4-4---------------------------------------6-5-----6-4-|
D|---------------1---1-1---1-1-1-3---3-3-3-3-3-3-------------------|
   1 + 2 + 3 + 4 + 1 + 2 + 3 + 4 + 1 + 2 + 3 + 4 + 1 + 2 + 3 + 4 +

G|-----------------------------------------------------------------|
D|-----------------------------------------------------------------|
A|---4-4---4-4-4-6---6-6-6-6-6-3/8---8-8-8-8-8-8-8-8-8-8-8-8-8-8-1-|
D|-----------------------------------------------------------------|
   1 + 2 + 3 + 4 + 1 + 2 + 3 + 4 + 1 + 2 + 3 + 4 + 1 + 2 + 3 + 4 +

Interlude 2:36
G|-----------------------------------------------------------------|
D|-----------------------------------------------------------------|
A|--------------/3------------------------------/5-------------3-1-|
D|-------------------------------0---------------------------------|
   1 + 2 + 3 + 4 + 1 + 2 + 3 + 4 + 1 + 2 + 3 + 4 + 1 + 2 + 3 + 4 +

G|-----------------------------------------------------------------|
D|-------------------------------------------------7---5-----------|
A|-------------1-3---------------5-----------1-3---------8---7---1-|
D|-----------------------------------------------------------------|
   1 + 2 + 3 + 4 + 1 + 2 + 3 + 4 + 1 + 2 + 3 + 4 + 1 + 2 + 3 + 4 +

Pre Chorus 2:45
G|-----------------------------------------------------------------|
D|-----------------------------------------------------------------|
A|---1-1-1-1-1-1-2---2---2---2---3---3-3-3-3-3-3-4---4---4---4---1-|
D|-----------------------------------------------------------------|
   1 + 2 + 3 + 4 + 1 + 2 + 3 + 4 + 1 + 2 + 3 + 4 + 1 + 2 + 3 + 4 +

G|-----------------------------------------------------------------|
D|-----------------------------------------------------------------|
A|-----1-1-1-1-1-1-1-1-1-1-1-1-1-0---------------------------------|
D|---------------------------------------------0-4---4-4-4-------3-|
   1 + 2 + 3 + 4 + 1 + 2 + 3 + 4 + 1 + 2 + 3 + 4 + 1 + 2 + 3 + 4 +

Chorus 2:55
G|-------------------------6-6-6-----------------------------------|
D|-----------------------6-----------------------------------------|
A|---------------4-----4---------6---6-6---6-6-6-------------------|
D|-----/-15--------------------------------------6---6-6---6-6-6-3-|
   1 + 2 + 3 + 4 + 1 + 2 + 3 + 4 + 1 + 2 + 3 + 4 + 1 + 2 + 3 + 4 +

G|-----------------------------------------------------------------|
D|-----------------------------------------------------------------|
A|---------------4---4-4---4-4-4-6---6-6---6-6-6-------------------|
D|---3-3---3-3-3---------------------------------6---6-6---6-6-6-3-|
   1 + 2 + 3 + 4 + 1 + 2 + 3 + 4 + 1 + 2 + 3 + 4 + 1 + 2 + 3 + 4 +

G|-----------------------------------------------------------------|
D|-----------------------------------------------------------------|
A|---------------4---4-4---4-4-4-6---6-6-6-6-6-6-------------------|
D|---3-3---3-3-3---------------------------------6---6-6-6-6-6-1-3-|
   1 + 2 + 3 + 4 + 1 + 2 + 3 + 4 + 1 + 2 + 3 + 4 + 1 + 2 + 3 + 4 +

G|-----------------------------------------------------------------|
D|-----------------------------------------------6---6---6---6-----|
A|---------------4---4-4---4-4-4-6---6-6-6-6-6-6-----------------4-|
D|---3-3---3-3-3---------------------------------------------------|
   1 + 2 + 3 + 4 + 1 + 2 + 3 + 4 + 1 + 2 + 3 + 4 + 1 + 2 + 3 + 4 +

3:14
G|-------------------------------------------------13-12---13-13-13-13-15-15---|
D|-------------------------------------------10-13-----------------------------|
A|---4-4-4-4-4-4-6---6-----6-6---8---8-10-11---------------------------------4-|
D|-----------------------------------------------------------------------------|
   1 + 2 + 3 + 4 + 1 + 2 + 3 + 4 + 1 + 2  +  3  +  4  +  1 +  2  +  3  +  4  +

G|-----------------------------------------------------------------|
D|-----------------------------------------------------------------|
A|---4-4-4-4-4-4-6---6-6-6-6-6-------------------------------------|
D|-----------------------------1-3---3-3-3-3-3-1-3----/15\/15\---0-|
   1 + 2 + 3 + 4 + 1 + 2 + 3 + 4 + 1 + 2 + 3 + 4 + 1 + 2 + 3 + 4 +

Outro
G|-----------------------------------------------------------------|
D|-----------------------3-2---------------------------------------|
A|-------------------0-------3-----------------------0-------------|
D|---0-3-0-3-0-0-5---------------0---0-3-0-3-0-0-5-------1-1-1-1-0-|
   1 + 2 + 3 + 4 + 1 + 2 + 3 + 4 + 1 + 2 + 3 + 4 + 1 + 2 + 3 + 4 +

G|-----------------------------------------------------------------|
D|-----------------------3-2---------------------------------------|
A|-------------------0-------3-----------------------0-------------|
D|---0-3-0-3-0-0-5---------------0---0-3-0-3-0-0-5-------1---1-----|
   1 + 2 + 3 + 4 + 1 + 2 + 3 + 4 + 1 + 2 + 3 + 4 + 1 + 2 + 3 + 4 +

Tabbed by Dave Vucko


            
            
Suggest correction
Creating personal tab
Creating personal tab
You can edit any tab online and save it as your Personal.

You can edit, replace or remove any tab part or add personal notes – all changes will be seen only by you.

Personal tabs can be accessed anytime from any device, even offline.
Learn more »
Give kudos to tab author, rate the tab!
1 2 3 4 5
comments
print report bad tab
guest
You may want to rate the tab now too:
select rating
Wanna post a correction for this tab? Suggest correction