Oops, an error
Loading. Please wait.

Dilbar Mere Tab

12,372 views 198 this week
no commentswrite comment
1 2 3 4 5
excellent!
x 1
add to favorites
launch autoscroll
font size
0
reset
how to read this tab
guitar tuner
Tab Pro tools
  • play this tab
  • loop segment
  • change instrument
  • show fretboard
  • metronome
Autoscroll
slow
fast
+/-
esc
set tempo
stop
Contributor
Difficulty
intermediate
BY : Aanand Panchal
Artist/Singer : Kishor Kumar
Song : Dilbar Mere
Movie : Satte Pe Satta

INSTRUCTION : / - SLIDE DOWN
              \ - SLIDE UP
              h - HAMMER


E ---------------------------------------------------------|
B ------1---------2-1-----------2--1-----------------------|
G ----1---------1-----1-----------------3------------------|
D --3------------------------------------------------------|
A -3-------------------------------------------------------|
E ---------------------------------------------------------|
Dilbar mere kab tak mujhe  AIse hi tadapaoge

E-------------------------------------------------------------------------|
B---------2--2--2h1-----------1-------------------------------------------|
G------------------ 3-------3--1----------------0--3--1--0--1--0----------|
D----------------------------------------3---2---------------------3------|
A-------------------------------------3-----------------------------------|
E-------------------------------------------------------------------------|
Main aag dil mein laga doonga who Ke pal mein pighal jaaoge

(Play X2 times)

E ---------------------------------|
B ----------1-3----------1h2-------|
G --2-2-3---------2--3------3------|
D ---------------------------------|
A ---------------------------------|
E ---------------------------------|
Ek din ayega, pyar ho jayega

E ---------------------------------------------------------------------------------|
B --1-2--2-2---2h1---------1-------------------------------------------------------|
G-------------------3--3--------3-----1------------------0--3--1--0--1--0----------|
D------------------------------------------3----------2-----------------------3----|
A----------------------------------------------------3-----------------------------|
E----------------------------------------------------------------------------------|
O ho, main aag dil mein laga doonga who Ke pal mein pighal jaoge

E -----------------------------------------------------------------------------|
B -----------------------------------------------------------------------------|
G ------------------------------------------0--0--0--0--0--0----3---1---1------|
D ---3--3--3--3--3--3/5\3-----1--0--0--0---------------------------------------|
A -----------------------------------------------------------------------------|
E -----------------------------------------------------------------------------|
Sochoge jab mere baare mein tanhaiyon me Gheer jaaoge aur bhi meri parachaiyon me  (Play X2 times)


E ----------------------------------------------|
B ----4--4--2--1--2------2--1------2--1---------|
G ----------------------3---------3-------------|
D ----------------------------------------------|
A ----------------------------------------------|
E ----------------------------------------------|
O dil machal Jayega, pyar ho jayega

E -------------------------------------------------------|
B ------1---------2-1-----------2--1---------------------|
G ----1---------1-----1-----------------3----------------|
D --3----------------------------------------------------|
A -3-----------------------------------------------------|
E -------------------------------------------------------|
Dilbar mere kab tak mujhe  AIse hi tadapaoge

E-------------------------------------------------------------------------|
B---------2--2--2h1-----------1-------------------------------------------|
G------------------ 3-------3--1----------------0--3--1--0--1--0----------|
D----------------------------------------3---2---------------------3------|
A-------------------------------------3-----------------------------------|
E-------------------------------------------------------------------------|
Main aag dil mein laga doonga who Ke pal mein pighal jaaoge

E ---------------------------------------------------------------------------|
B ---------------------------------------------------------------------------|
G ---------------------------------------0--0--0--0--0--0----3---1---1-------|
D ---3--3--3--3--3--3/5\3----1--0--0--0--------------------------------------|
A ---------------------------------------------------------------------------|
E ---------------------------------------------------------------------------|
Dil se milega jo dil to mehakne lagoge  Tum meri bahon mein aa ke bahekane lagoge  (Play X2 times)


E ----------------------------------------------|
B ----4--4--2--1--2------2--1------2--1---------|
G ----------------------3---------3-------------|
D ----------------------------------------------|
A ----------------------------------------------|
E ----------------------------------------------|
Hosh kho jayega, pyar ho jayega

E -------------------------------------------------------|
B ------1---------2-1-----------2--1---------------------|
G ----1---------1-----1-----------------3----------------|
D --3----------------------------------------------------|
A -3-----------------------------------------------------|
E -------------------------------------------------------|
Dilbar mere kab tak mujhe  AIse hi tadapaoge

E------------------------------------------------------------------------|
B---------2--2--2h1-----------1------------------------------------------|
G------------------ 3-------3--1----------------0--3--1--0--1--0---------|
D----------------------------------------3---2---------------------3-----|
A-------------------------------------3----------------------------------|
E------------------------------------------------------------------------|
Main aag dil mein laga doonga who Ke pal mein pighal jaaoge

(Play X2 times)


E ----------------------------------|
B ----------1-3----------1h2--------|
G --2-2-3---------2--3------3-------|
D ----------------------------------|
A ----------------------------------|
E ----------------------------------|
Ek din ayega, pyar ho jayega

E ----------------------------------------------------------------------------------|
B --1-2--2-2---2h1---------1--------------------------------------------------------|
G-------------------3--3--------3-----1------------------0--3--1--0--1--0-----------|
D------------------------------------------3----------2-----------------------3-----|
A----------------------------------------------------3------------------------------|
E-----------------------------------------------------------------------------------|
O ho, main aag dil mein laga doonga who Ke pal mein pighal jaoge

E ----------------------------------------------------|
B ------1---------2-1-----------2--1------------------|
G ----1---------1-----1-----------------3-------------|
D --3-------------------------------------------------|
A -3--------------------------------------------------|
E ----------------------------------------------------|
Dilbar mere kab tak mujhe  AIse hi tadapaoge

E-------------------------------------------------------------------------|
B---------2--2--2h1-----------1-------------------------------------------|
G------------------ 3-------3--1----------------0--3--1--0--1--0----------|
D----------------------------------------3---2---------------------3------|
A-------------------------------------3-----------------------------------|
E-------------------------------------------------------------------------|
Main aag dil mein laga doonga who Ke pal mein pighal jaaoge

E ----------------------------------|
B ----------------------------------|
G ---------0--3--1--0--1--0---------|
D ------2----------------------3----|
A ---3------------------------------|
E ----------------------------------|
(The Whistle)
comments
We did not receive enough feedback on this tab! Please rate:
print report bad tab
1 2 3 4 5
I want to post or [tab]
guest
You may want to rate the tab now too:
select rating
Please do not post tabs as comments. Select "correction" instead!