Oops, an error
Loading. Please wait.

Almost Human Bass Tab

version 1
version 1

Whole song

Interactive

by KISS
1,488 views 1 this week
no commentswrite comment
1 2 3 4 5
2 more votes to show rating
add to favorites
launch autoscroll
font size
0
reset
guitar tuner
Autoscroll
slow
fast
+/-
esc
set tempo
stop
Help us to improve Ultimate-Guitar.com Take our survey!
×
Almost Human by Kiss
Tune down a half step


Gb|----------12h14-14-12-14-------------------------------------|
Db|--------------------------14\--------------------------------|
Ab|-------------------------------------------------------------|
Eb|-------------------------------------------------------------|
                                                    
Gb|----------------------------------------12-9-----------------|
Db|---------------------------------------------10--------------|
Ab|--0----0----0------------0----0----0-------------------------|
Eb|----------------0-3-0-3--------------------------------------|
                                                    
Gb|-------------------------------------------------------------|
Db|-------3----------3----------5-----5------5------------------|
Ab|--3---------3---3---3---5--------5---5--5---5----------------|
Eb|-------------------------------------------------------------|
                                                 
Gb|-------------------------------------------------------------|
Db|-------3----------3--------------------2---------------------|
Ab|--3---------3---3---3---2--2--2----2h4-----------------------|
Eb|-------------------------------------------------------------|
                                                        
Gb|-------------------------------------------------------------|
Db|-------------------------------------------------------------|
Ab|--0---0--------------------0---0-----------------------------|
Eb|--------0--0--2---2-3-2-0--------0--0--2--2-0-3-0-3----------|
                                                  
Gb|-------------------------------------------------------------|
Db|-------------------------------------------------------------|
Ab|--0---0--------------------0---0-----------------------------|
Eb|--------0--0--2---2-3-2-0--------0----2----3-----------------|
                                                        
Gb|-------------------------------------------------------------|
Db|-------------------------------------------------------------|
Ab|--0---0--------------------0---0-----------------------------|
Eb|--------0--0--2---2-3-2-0--------0--0--2--2-0-3-0-3----------|

Gb|------------------------------------------2-0----------------|
Db|----------------------------------------------2-0------------|
Ab|--0---0--------------------0---0------------------3----------|
Eb|--------0--0--2---2-3-2-0--------0--0--2---------------------|

Gb|-------------------------------------------------------------|
Db|-------------------------------------------------------------|
Ab|----------2----------1--------1/-8\--------------------------|
Eb|-------------------------------------------------------------|
                                                              
Gb|------------------------------------------14--14-12----------|
Db|----------------------------------------------------14-------|
Ab|--0---0--------------------0---0-----------------------15----|
Eb|--------0--0--2---2-3-2-0--------0--0--0---------------------|
   |-----------x3----------|
                                                                
Gb|---------------------------------------14-12-----------------|
Db|---------------------------------------------14--14-12-10----|  x2
Ab|--0---0--------------------0---0--------------------------12-|
Eb|--------0--0--2---2-3-2-0--------0--0------------------------|
                                                                 
Gb|---------------------------------------12h14-14-14-------14--|
Db|---------------------------------------------------12h14-----|
Ab|--0---0--------------------0---0-----------------------------|
Eb|--------0--0--2---2-3-2-0--------0--0------------------------|
                                                          
Gb|---------------------------------------2-0-------------------|
Db|-------------------------------------------2-0-0-------------|
Ab|--0---0--------------------0---0-----------------3-0---------|
Eb|--------0--0--2---2-3-2-0--------0--0----------------3-------|
                                                                
Gb|-------------------------------------14p12-------------------|
Db|-------------------------------------------14-12-12\10-------|
Ab|-0---0--------------------0--0-------------------------12-10-|
Eb|-------0--0--2---2-3-2-0-------0--0--------------------------|
                                                       
Gb|--------------------------------------------12-9-------------|
Db|-------------------------------------------------10----------|
Ab|--0---0--------------------0---0-----------------------------|
Eb|--------0--0--2---2-3-2-0--------0--0--2---------------------|
                                                       
Gb|-------------------------------------------------------------|
Db|-------------------------------------------------------------|
Ab|--0---0--------------------0---0-----------------------------|
Eb|--------0--0--2---2-3-2-0--------0--0--2--0--2-0-3-----------|

Gb|-----------------------------------------14--14-12-----------|
Db|---------------------------------------------------14--------|
Ab|--0---0--------------------0---0-----------------------------|
Eb|--------0--0--2---2-3-2-0--------0--0------------------------|

Gb|---------------------------------------14--14----14--14------|
Db|-------------------------------------------------------------|
Ab|--0---0--------------------0---0-----------------------------|
Eb|--------0--0--2---2-3-2-0--------0--0------------------------|
                                                        (the song 
                                                         fades out)
Thanks, please rate it after you learn it.
_TheBassist01_
Suggest correction
Give kudos to tab author, rate the tab!
1 2 3 4 5
comments
print report bad tab
guest
You may want to rate the tab now too:
select rating
Wanna post a correction for this tab? Suggest correction