Oops, an error
Loading. Please wait.
We have Chord Pro version of Beth.
It's the closest thing you can get to the original song and it has interactive parts. Check out the tab »
×
by KISS
8,510 views 21 this week
no commentswrite comment
1 2 3 4 5
x 4
add to favorites
launch autoscroll
font size
0
reset
how to read this tab
guitar tuner
backing track
0:00
0:00
Autoscroll
slow
fast
+/-
esc
set tempo
stop
Author
-------------------------------------------------------------------------------
                             Beth Unplugged - Kiss
-------------------------------------------------------------------------------
Tabbed by: tom8cheese
Email: tom8cheese@hotmail.com

Tune down half step
Eb-Ab-Db-Gb-Bb-eb

| /  slide up
| \  slide down
| h  hammer-on
| p  pull-off
| x  Mute note

eb|--3------3--3-|-1-0---------|-----8--------8--|----------------|-0-----3--3-3--|
Bb|----1----1--1-|-----3--1----|-------6------6--|---0-1---3---6--|-------1--1----|
Gb|------0-------|-----------0-|----------------0|---0-0---0---0-0|-----0--------0|
Db|--------------|-------------|---7--------7----|----------------|---2-----------|
Ab|--------------|-------------|-5--------5------|-------0h2-2/5--|-3-------------|
Eb|--------------|-------------|-----------------|-3--------------|---------------|

eb|-1-0-------------|-----8-------8--|-3--||-------0----0--|-------5----5-----|
Bb|-------3---1---0-|-------6-----6--|-0--||-------1--1----|-------6--6-------|
Gb|-----0-------0---|---------------0|-0--||*----0--------0|-----7--------7---|
Db|-----------------|---7-------7----|-0--||*--2-----------|---5--------------|
Ab|-----------------|-5-------5------|-2--||---------------|-5----------------|
Eb|-----------------|----------------|-3--||-3-------------|------------------|

eb|-------7--------|-----0-------3--|-------1---1---|-------3----3--|-----0-------0|
Bb|-------8--8-----|-----1-------3--|-------1-----1-|-------3------3|-------1---1--|
Gb|-----9------9---|-------0---0---0|-----2---------|-----4---------|---0---0-0----|
Db|---9----------9-|---2------------|---3-----3-----|---5------5----|-2------------|
Ab|-7--------------|-0--------------|-3-------------|-5-------------|-x------------|
Eb|----------------|---------3------|-1-------------|-3-------------|-3------------|

eb|------------|----0------0---|-----3-----------|----1-1-----1p0-|-------0-----0--|
Bb|10-10--9--9-|------1------1-|-------3---------|----1-1---------|-------0---0---0|
Gb|-9--9--9--9-|-2-------2-----|---0---0-0-----0-|----2-2---2-----|-----0----------|
Db|-9--9--9--9-|-2-------------|-0-----------0---|-3------3-------|-2-2------------|
Ab|-7--7--7--7-|-0-------------|-2---------2-----|-3--------------|-2--------------|
Eb|------------|---------------|-3---------------|-1--------------|-0--------------|

                                               __________________________________________
                                               |1st ending                               |
eb|---------------|-1--1-11--3----|-0---0------|------0--3-|-1----3------|---------------||
Bb|-7-----7---7-7-|-1--1-11--3----|-0---1--1---|------1--0-|-1----3------|---------------||
Gb|-5---5---5-----|-2--2-22--4----|-2--------2-|-(2)--2--0-|-2----4----0-|-(0)-------0-0*||
Db|-4-4-----4-----|-3--3-33--5----|-2----------|------2--0-|-3----5----2-|-(2)-----2----*||
Ab|-5-------------|-3--3-33--5----|-0----------|------0--2-|-3----5----3-|-(3)---3-------||
Eb|---------------|-1--1-11--3--0-|------------|---------3-|-1--0-3--0---|---------------||

   ________________
  |2nd ending
eb|-------0---3--|--1----3--|-----------|----------------------------------------|
Bb|-(1)---1---0--|--1----3--|-----------|----------------------------------------|
Gb|-------2---0--|--2----4--|---PIANO---|--PIANO-SOLO----------------------------|
Db|-------2---0--|--3----5--|-----8-----|----!0----------------------------------|
Ab|-------0---2--|--3----5--|--MEASURES-|--MEASURES------------------------------|
Eb|-----------3--|--1----3--|-----------|----------------------------------------|

eb|----0----|-------5-----5---|-------7--------|-----0-------3---|---1---|---3---|
Bb|----1----|-------6---6-----|-------8--8-----|-----1-------3---|---1---|---0---|
Gb|----0----|-----7---------7-|-----9------9---|-------0---0---0-|---2---|---0---|
Db|----2----|---5-------------|---9----------9-|---2-------------|---3---|---0---|
Ab|----x----|-5---------------|-7--------------|-0---------------|---3---|---2---|
Eb|----3----|-----------------|----------------|---------3-------|---1---|---0---|

eb|-3-----3--3----|-1-0---------|-----8-------8---|-----------------|-0-----3--3------|
Bb|---1---1--1--1-|------3--1---|-------6-----6---|---0-1---3---6---|-------1--1------|
Gb|-----0---------|-----------0-|---------------0-|---0-0---0---0-0-|-----0-----------|
Db|---------------|-------------|---7-------7-----|-----------------|---2-------------|
Ab|-3-------------|-------------|-5-------5-------|-------0h2-2/5---|-3---------------|
Eb|---------------|-------------|-----------------|-3---------------|-----------------|

eb|-1-0------------|-------8---8-----|--------------6-|-----0-----|
Bb|-------3--1---0-|-------5---5-----|---0-1----3-----|-----1-----|
Gb|-----0------0---|-----5---5-------|---0-0----------|-----0-----|
Db|----------------|---7-----------7-|----------------|-----2-----|
Ab|----------------|-5-----------5---|-------0--2---5-|-----3-----|
Eb|----------------|-----------------|-3--------------|-----3-----|


ENJOY!

| /  slide up
| \  slide down
| h  hammer-on
| p  pull-off
| x  Mute note
Suggest correction
comments
print report bad tab
guest
You may want to rate the tab now too:
select rating
Wanna post a correction for this tab? Suggest correction