Oops, an error
Loading. Please wait.

Beth Tab

version 3
version 3

Whole song

Interactive

by KISS
14,448 views 18 this week
1 commentread comment
1 2 3 4 5
excellent!
x 6
add to favorites
launch autoscroll
font size
0
reset
how to read this tab
guitar tuner
Autoscroll
slow
fast
+/-
esc
set tempo
stop
Help us to improve Ultimate-Guitar.com Take our survey!
×
Contributor
CHORDS:

      C: x32010
   Dm/C: x30231
  Cmaj7: x32000
    C/B: x22010
     Am: x02210
      G: 320003
      F: 133211
    G/F: 120003
    C/E: 032010
   Esus: 022010
     E7: 020100
     Em: 022000
     D7: xx0212
G7sus/C: 320011
  G7sus: 330001

INTRO:

 (C)                                 (F)               (G/C)
|-3-------3-------|--1p0------------|-1-------1-------|-------------1---|
|-------1-----1---|--------3---1----|-------1----1----|-0---1---3-------|
|-----0---------0-|------0-------0--|-----2--------2--|---0---0---0---0-|
|---2-------------|----------2------|---3-------------|-----------------|
|-3---------------|--3--------------|-----------------|-----------------|
|-----------------|-----------------|-1---------------|-3-------3-------|


 (C)                                 (F)               (G)
|-3-------3-------|--1p0------------|-1---------------|-3---------------|
|-------1-----1---|--------3---1----|------1---1------|-3---------------|
|-----0---------0-|------0-------0--|----2-------2----|-0---------------|
|---2-------------|----------2------|--------3--------|-0---------------|
|-3---------------|--3--------------|-----------------|-2---------------|
|-----------------|-----------------|-1---------------|-3---------------|

VERSE 1:
 
 C                Dm/C         Cmaj7      (C/B)      Am G
Beth, I hear you callin, but I can't come home right now
 
F                     G            C/E                Esus E7
Me and the boys are playin' and we just can't find the sound


CHORUS:

 Am              G              F                 Em
Just a few more hours, and I'll be right home to you

   D7                 F G       Am (hold)           Am G
I think I hear them callin', Oh, Beth, what can I do? ----

 F          G    C   G7sus/C
Beth, what can I do? -------


VERSE 2:

 C                   Dm/C           Cmaj7    (C/B)     Am G
You say you feel so empty, that our house just ain't a home

F                     G         C/E               Esus E7
I'm always somewhere else and you're always there alone


CHORUS:

 Am              G              F                 Em
Just a few more hours, and I'll be right home to you

   D7                 F G        Am (hold)            Am G
I think I hear them callin', Oh, Beth, what can I do? ----

 F          G    C   
Beth, what can I do


BREAK:

 (C)                                 (F)               (G/C)
|-3-------3-------|--1p0------------|-1-------1-------|-------------1---|
|-------1-----1---|--------3---1----|-------1----1----|-0---1---3-------|
|-----0---------0-|------0-------0--|-----2--------2--|---0---0---0---0-|
|---2-------------|----------2------|---3-------------|-----------------|
|-3---------------|--3--------------|-----------------|-----------------|
|-----------------|-----------------|-1---------------|-3-------3-------|


 (C)                                 (F)               (Esus)   (E7)
|-3-------3-------|--1p0------------|-1-------1-------|-0-------0-------|
|-------1-----1---|--------3---1----|-------1----1----|-----------------|
|-----0---------0-|------0-------0--|-----2--------2--|-------0-------1-|
|---2-------------|----------2------|---3-------------|-----2-------0---|
|-3---------------|--3--------------|-----------------|---2-------2-----|
|-----------------|-----------------|-1---------------|-0-------0-------|

 (Am)              (G)               (F)               (Esus)   (E7)
|---0---0---0---0-|---0---0---0---0-|---0---0---0---0-|-0-------0-------|
|-----1-------1---|-----1-------1---|-----1-------1---|-----------------|
|-2-------2-------|-0-------0-------|-2-------2-------|-------0-------1-|
|-----------------|-----------------|-----------------|-----2-------0---|
|-0-------0-------|-----------------|-----------------|---2-------2-----|
|-----------------|-3-------3-------|-1-------1-------|-0-------0-------|

 (D7)              (F)     (G)       (Am)~~~~hold~~~~  (Am)    (G)
|----------2------|-1-------3-------|-0---------------|-0-------3-------|
|---1------1------|-1-------0-------|-1---------------|-1-------0-------|
|-----2----2------|-2-------0-------|-2---------------|-2-------0-------|
|-------0--0------|-3-------0-------|-2---------------|-2-------0-------|
|-0--------0------|-3-------2-------|-0---------------|-0-------2-------|
|-----------------|-1-------3-------|-0---------------|-0-------3-------|

 (F)      (G) (C)  (G7sus/C)
|-1--------3---0--|-1-1-1-1-|
|-1--------0---1--|-1-1-1-1-|
|-2--------0---0--|-0-0-0-0-|
|-3--------0---2--|-0-0-0-0-|
|-3--------2---3--|-2-2-2-2-|
|-1--------3---x--|-3-3-3-3-| 

OUTRO:

(strum each chord once)

 C                    Dm/C        Cmaj7             Am G
Beth, I know you're lonely, and I hope you'll be alright,

      F                        G G7sus
cause me and the boys will be playin'


all night.
 (C)                                 (F)               (G/C)
|-3-------3-------|--1p0------------|-1-------1-------|-------------1---|
|-------1-----1---|--------3---1----|-------1----1----|-0---1---3-------|
|-----0---------0-|------0-------0--|-----2--------2--|---0---0---0---0-|
|---2-------------|----------2------|---3-------------|-----------------|
|-3---------------|--3--------------|-----------------|-----------------|
|-----------------|-----------------|-1---------------|-3-------3-------|

 (C)                                 (F)               (G/C)
|-3-------3-------|--1p0------------|-1-------1-------|-------------1---|
|-------1-----1---|--------3---1----|-------1----1----|-0---1---3-------|
|-----0---------0-|------0-------0--|-----2--------2--|---0---0---0---0-|
|---2-------------|----------2------|---3-------------|-----------------|
|-3---------------|--3--------------|-----------------|-----------------|
|-----------------|-----------------|-1---------------|-3-------3-------|

 (C*)~~~~~hold~~~~~
|-3---------------|
|-1---------------|
|-0---------------|
|-2---------------|
|-3---------------|
|-x---------------|
Suggest correction new What's this?
You can suggest a correction to this tab. Community and Mods will review your correction and vote to approve or reject it.
comments
print report bad tab
1 comment total.
0 reply
Robbstein 60 wrote on October 16 2013, 12:24 pm

Very nice tab! Love it!

guest
You may want to rate the tab now too:
select rating
Please do not post tabs as comments. Select "correction" instead!