Oops, an error
Loading. Please wait.

Black Diamond Bass Tab

version 2
version 2

Whole song

by KISS
579 views 3 this week
no commentswrite comment
1 2 3 4 5
2 more votes to show rating
add to favorites
launch autoscroll
font size
0
reset
guitar tuner
Autoscroll
slow
fast
+/-
esc
set tempo
stop
Help us to improve Ultimate-Guitar.com Take our survey!
×
Author
Difficulty
Tuning
intermediate
D# G# C# F# A# D#
Black Diamond - Kiss
Intro           
Gb|-------------|---------|----------|
Db|*---7--------|---------|---------*|
Ab|*----7-----0-|-320-----|---3-3-3-*|
Eb|-5----5--03--|----31---|-r3-3-3-0-|

Verse
Gb|-----------------|---------|----------|
Db|----7p57----7p57-|---------|----------|
Ab|-0--------0------|-320-----|---3-3-3--|
Eb|-----------------|----31---|-r3-3-3-0-|

Gb|-----------------|---------|--------------|
Db|----7p57----7p57-|---------|-5h75-r-------|
Ab|-0--------0------|-320-----|--------0---r-|
Eb|-----------------|----31---|--------------|

Chorus
Gb|------------|-----------|-----------|---------|
Db|------------|-----------|-----------|---------| repeat 1st two measures
Ab|------------|-----------|---3--5--3-|---------|
Eb|-1--1--11-1-|-333--33-3-|-55--------|-333/5-3-|

Intro (one time)
Verse
Chorus

Interlude
Gb|-----------|---------|----------|-----4\-|-9-7-5-4-----|--------|----------|
Db|-----------|---------|----------|--------|---------7-5-|-3------|----------|
Ab|-----------|-320-----|---3-3-3--|--------|-------------|----320-|---3-3-3--|
Eb|-5\-r------|----31---|-r3-3-3-0-|-5\-----|-------------|--------|-r3-3-3-0-|

Guitar Solo (intro)

Verse
Gb|--------------|---------|----------|-------------|---------|--------------|
Db|--------------|---------|----------|----7--------|---------|-5h75-r-------|
Ab|--------------|-320-----|---3-3-3--|-----7-----0-|-320-----|--------0---r-|
Eb|-5--r---------|----31---|-r3-3-3-0-|-5----5--03--|----31---|--------------|

Last Chorus
Gb|------------|-----------|-----------|---------|
Db|------------|-----------|-----------|---------| 
Ab|------------|-----------|---3--5--3-|---------|
Eb|-1--1--11-1-|-333--33-3-|-55--------|-333/5-3-|

Gb|------------|-----------|-----------|--------------|
Db|------------|-----------|-----------|-5h75-r-------| 
Ab|------------|-----------|---3--5--3-|--------0-0~~-|
Eb|-1--1--11-1-|-3r--------|-55--------|--------------|

Outro
Gb|--------------|------------|--------------|
Db|*---7---------|---3-------*|----7---------|
Ab|*------7------|-----3-----*|-------7------|
Eb|-5--------5-3-|-1------1-3-|-5--------5-3-|

Gb|--------------|-----------|------------|--------|--------|
Db|---3---/7-5---|-2---2-0---|------------|--------|--------|
Ab|-----3-----7\-|---------2-|------------|-5~~~~--|-0~~~---|
Eb|-1------------|-----------|-0--00233/5-|--------|--------|
Suggest correction
Give kudos to tab author, rate the tab!
1 2 3 4 5
comments
print report bad tab
guest
You may want to rate the tab now too:
select rating
Wanna post a correction for this tab? Suggest correction