Oops, an error
Loading. Please wait.

Burn Bitch Burn Tab

version 1
version 1

Whole song

Interactive

by KISS
2,195 views 3 this week
1 commentread comment
1 2 3 4 5
please rate
add to favorites
launch autoscroll
font size
0
reset
how to read this tab
guitar tuner
Tab Pro tools
  • play this tab
  • loop segment
  • change instrument
  • show fretboard
  • metronome
×
Best way to learn
"Burn Bitch Burn"
Autoscroll
slow
fast
+/-
esc
set tempo
stop
Contributor
BURN BITCH BURN (from the KISS CD "ANIMALIZE")
----------------------------------------------
                                                                                   

Tuned down 1/2-step

Key:
/    = slide up
\    = slide down
b    = bend (whole step)
b^   = bend (1/2 step)
b^^  = bend (1 1/2 steps)
pb   = pre-bend
r    = release-bend
t    = tap with righthand finger
h    = hammer-on
p    = pull-off
~    = Vibrato
*    = Natural Harmonic
#(#) = Trill
**   = Artificial Harmonic
x    = Dead notes (no pitch)
P.M. = Palm mute (- -> underneath indicates which notes)
(\)  = Dive w\bar
(/)  = Release w\bar
Tp   = Tap w\plectrum




Rhythm Fig. 1 
                                                                             
Eb|----------------------------------------------------------|
Bb|-----------------------------------------------3----------|
Gb|--------2------2-----2-------------2-----------2----------|
Db|--------2------2-----2-------------2-----------0----------|
Ab|--------0------0-----0-------------0----------------------|
Eb|--0-2-3----------3-3---3~----0-2-3---------0-0------------|
     P.M.           P.M.        P.M.          P.M.




Rhythm Fig. 2 
                                                                      
Eb|----------------------------------------------------------|
Bb|----------------------------------------------------------|
Gb|--------2------2-----2-------------2----------------------|
Db|--------2------2-----2-------------2----------------------|
Ab|--------0------0-----0-------------0----------------------|
Eb|--0-2-3----------3-3---3~----0-2-3------------------------|
     P.M.           P.M.        P.M.



Rhythm Fig. 3a
                                                                            
Eb|----------------------------------------------------------|
Bb|--------------------------------------3----------3--------|
Gb|----------2------------4--------------2----------0--------|
Db|----------2------------4-------------------------0--------|
Ab|-------------------------------------------------x--------|
Eb|--0-2-2-2------0-2-2-2--------0-2-2-2------0-1-2-3--------|
     P.M. ->      P.M. ->        P.M. ->     P.M.->




Rhythm Fig. 3b
                                                                                              
Eb|----------------------------------------------------------|
Bb|----------------------------------3---------3---3---3-----|
Gb|---------2-----------4------------2---------0---0---0-----|
Db|---------2-----------4----------------------0---0---0---2-|
Ab|--------------------------------------------x---x---x---2-|
Eb|-0-2-2-2-----0-2-2-2------0-2-2-2-----0-1-2-3---3---3---0-|
    P.M. ->     P.M. ->      P.M. ->    P.M.->




Rhythm Fig. 4
                                                                                   
Eb|----------------------------------------------------------|
Bb|-------------------------3--------------------------------|
Gb|--2----2----2----2-----2-0--------------------------------|
Db|--2----2----2----2-----2-0--------------------------------|
Ab|--0----0----0----0-----0-x--------------------------------|
Eb|-------------------------3--------------------------------|



Eb|----------------------------------------------------------|
Bb|-------------------------3---3----------------------------|
Gb|--2----2----2----2-----2-0---2----------------------------|
Db|--2----2----2----2-----2-0---0----------------------------|
Ab|--0----0----0----0-----0-x--------------------------------|
Eb|-------------------------3--------------------------------|



Eb|----------------------------------------------------------|
Bb|-------------------------3--------------------------------|
Gb|--2----2----2----2-----2-0--------------------------------|
Db|--2----2----2----2-----2-0--------------------------------|
Ab|--0----0----0----0-----0-x--------------------------------|
Eb|-------------------------3--------------------------------|




Eb|----------------------------------------------------------|
Bb|----------------------------------------------------------|
Gb|--2----2----2----2-----2----------------------------------|
Db|--2----2----2----2-----2-----2----------------------------|
Ab|--0----0----0----0-----0-----2----------------------------|
Eb|-------------------------3---0----------------------------|



Interlude solo

Eb|----------------------------------------------------------|
Bb|-----------------------13---------------------------------|
Gb|--12*(\)--------12b-------14~--(\/)(\/)(\/)-14p12h14p12---|
Db|--12*(\)--------------------------------------------------|
Ab|----------------------------------------------------------|
Eb|----------------------------------------------------------|
                                               Lower whammy



Eb|----------------------------------------------------------|
Bb|--13b~----------------------------------------------------|
Gb|---------14-(\/)(\/)(\/)(\/)-5b-----r5-0h2p0h2p0---14-----|
Db|----------------------------------------------------------|
Ab|----------------------------------------------------------|
Eb|----------------------------------------------------------|
                                          Lower whammy



Eb|----------------------------12-15p12----------------------|
Bb|--13b----r13----------13-15----------13h15-13\10h13p10----|
Gb|--------------14~-----------------------------------------|
Db|----------------------------------------------------------|
Ab|----------------------------------------------------------|
Eb|----------------------------------------------------------|




Eb|----------------------------------------------------------|
Bb|----------------------------------------------------------|
Gb|--12-9----9-----------------------------------------------|
Db|-------12---12-10~--(\/)(\/)(\/)(\/)(\)-------------------|
Ab|----------------------------------------------------------|
Eb|----------------------------------------------------------|




Riff 1

Eb|-------------------------------------10-9-----------------|
Bb|------------------------------------------10-(\)----------|
Gb|--5~------------------------------------------------------|
Db|--5~------------------------------------------------------|
Ab|----------------------------------------------------------|
Eb|----------------------------------------------------------|
     Fade in w/ volume knob
 


Eb|----------------------------------------------------------|
Bb|----------------------------------------------------------|
Gb|--2-------------------------------------------------------|
Db|--2-------------------------------------------------------|
Ab|----------------------------------------------------------|
Eb|----------------------------------------------------------|
     Fade in w/ volume knob



Solo

Eb|----------------------------------------------------------|
Bb|----------------------------------------------------------|
Gb|--(/)-4*-(\)------------------/9~----9p7~-----------12----|
Db|----------------------------------------------------------|
Ab|----------------------------------------------------------|
Eb|----------------------------------------------------------|
    Hammer-on from nowhere



Eb|----------------------------------------------------------|
Bb|---------13--------------------------------------17-20p17-|
Gb|--12b-------14~---(\/)(\/)(\/)(\/)(\)---------19----------|
Db|----------------------------------------------------------|
Ab|---------------------------------------(12)---------------|
Eb|----------------------------------------------------------|
                                                 < - 2x - - >



Eb|------------------------------20b~-----17-19-17-19b--r19p-|
Bb|--20b---20p17----17-20b----17-----------------------------|
Gb|--------------19------------------------------------------|
Db|----------------------------------------------------------|
Ab|----------------------------------------------------------|
Eb|----------------------------------------------------------|




Eb|--17-19b--r19p17------------------------------------------|
Bb|-----------------20b~-------------------------------5-----|
Gb|----------------------------------------5---5h7p5h7---7---|
Db|--------------------------------5h7p5h7---7---------------|
Ab|----------------------------------------------------------|
Eb|----------------------------------------------------------|




Eb|----------5---5h8p5h8p8-t10-5h8p8-t8-5h8p5-t10-5h8p5-t12--|
Bb|--5h8p5h8---8---------------------------------------------|
Gb|----------------------------------------------------------|
Db|----------------------------------------------------------|
Ab|----------------------------------------------------------|
Eb|----------------------------------------------------------|




Eb|--5h8p5-t10-5h8p5------/17--15~---------------------------|
Bb|-----------------------------------10h13p10h13p10-13b-----|
Gb|----------------------------------------------------------|
Db|----------------------------------------------------------|
Ab|----------------------------------------------------------|
Eb|----------------------------------------------------------|




Eb|----------------------------------------------------------|
Bb|--r13--10(\/)(\/)-13b----r13-10(\/)(\/)(\/)---------13-15-|
Gb|------------------------------------------------/14-------|
Db|----------------------------------------------------------|
Ab|----------------------------------------------------------|
Eb|----------------------------------------------------------|




Eb|--12-12h15p12-15-15b------r15p14~~------------------------|
Bb|----------------------------------------------------------|
Gb|----------------------------------------------------------|
Db|----------------------------------------------------------|
Ab|----------------------------------------------------------|
Eb|----------------------------------------------------------|

Gene Simmons
comments
We did not receive enough feedback on this tab! Please rate:
print report bad tab
1 2 3 4 5
1 comment total.
0 reply
swave75 wrote on January 8 2012, 10:19 am

Put my log in your fireplace!!!

I want to post or [tab]
guest
You may want to rate the tab now too:
select rating
Please do not post tabs as comments. Select "correction" instead!