Oops, an error
Loading. Please wait.

Calling Dr Love Tab

version 3
version 3

Whole song

Interactive

by KISS
11,771 views 9 this week
no commentswrite comment
1 2 3 4 5
please rate
add to favorites
launch autoscroll
font size
0
reset
how to read this tab
guitar tuner
Autoscroll
slow
fast
+/-
esc
set tempo
stop
Help us to improve Ultimate-Guitar.com Take our survey!
×
Contributor
   i noitced that their aren't very many tabs of this song up and alot of them are 
pro guitar tab so i will tab it for u guys 

tuning (E-B-G-D-A-e)

tab by - Brandon B.

     intro
E|-------------------------------------------------|
B|-------------------------------------------------|
G|-9---9--0--12---12--0---7---7--0---2---2---0---9-|
D|-9---9--0--12---12--0---7---7--0---2---2---0---9-|
A|-7---7-----10---10------5---5------0---0-------7-|
e|-------------------------------------------3-----|

   Gtr 3 Fill       Ryh. Fig. 3 Gtrs 1 &  2
E|-7-7-7-7-7-7-7-|-----------------------------------------------------|
B|---------------|-----------------------------------------------------|
G|---------------|-----------------------------------------------------|
D|---------------|-----------------------------------------------------|
A|---------------|-7\---------7-5v-(5)v-------------7v---(7)\-----7-5v-|
e|---------------|-----0---0-------------7---5-3-0-------------0-------|


E|-------------------------------------------------------|
B|-----------------------------------------------------9-|
G|-----------------------------------------------------9-|
D|-----------------------------------------------------9-|
A|-(5)v-------------7v--(7)\---------7---------5-------7-|
e|-------7---5-3-0------------0---0-----8-7-5-----7-5----|

                          Rhy Fig 4 Gtrs 1 & 2
E|----------------------|------0---------3----------2--------|
B|-(9)---12-------------|------0---------3----------3--------|
G|-(9)---12---7---2---9-|------------------------------------|
D|-(9)---12---7---2---9-|------------------------0-----------|
A|-(7)---10---5---0---7-|-------------------2-3--------3-2-0-|
e|----------------------|-(0)-----0-2-3----------------------|

                                     Rhy Fill 2 Gtrs 1 & 2
E|------0---------0---------3------|-----------------------|
B|------2---------0---------3------|-----------------------|
G|------0--------------------------|-(2)-------------------|
D|---------------------------------|-(2)-------------------|
A|-(0)-------------------------2-3-|-(0)-------------------|
e|---------3-2-0-----0-2-3---------|-----3-2-0-------------|

   Fill 2 Gtr 3
E|----------------------------|
B|----------------------------|
G|-14b------------------------|
D|------14--12--14p12v--(12)\-|
A|----------------------------|
e|----------------------------|

   Guitar Solo
E|-----------------------------------------------------------------------|
B|-----------------------------------------------------------------------|
G|-----------------------------------------------------------------------|
D|-----------------------------------------------------------------------|
A|-(7)-7-5h7-7-5h7-5h7-5h7-5h7-5h7p5p0-7p5p0-7p5p0-7p5p0-7p5p0-0h7p5p0h7-|
e|-----------------------------------------------------------------------|


E|-------------------------------------|-----------------------------------|
B|-------------------------------------|--------------------------------12-|
G|-------------------------x--12--14bv-|-14-12-14-14br-(14)p12------14-----|
D|-------------------------x--12-------|------------------------14---------|
A|-5p0--------dive w/bar---------------|-----------------------------------|
e|------7-6-5-3------------------------|-----------------------------------|


E|-----------------------------12--------------------------------------|
B|-------------------------12------15-12-------12-15--12h15p12------12-|
G|-12------14------12-14b-----------------14b-------------------14-----|
D|-----14------14------------------------------------------------------|
A|---------------------------------------------------------------------|
e|---------------------------------------------------------------------|


E|-15br-(15)--12h15p12-------------------15------------------|
B|----------------------15bv-15-12---------------------------|
G|----------------------------------14b------14br-(14)-14-12-|
D|-----------------------------------------------------------|
A|-----------------------------------------------------------|
e|-----------------------------------------------------------|


E|-----------------------------------------------------------------------|
B|-----------------------------------------------------------------------|
G|-14br-(14)p12-14--12h14p12p11h12p11---------------------------12\--12\-|
D|-------------------------------------12--12h14-14br-(14)------12\--12\-|
A|----------------------------------------------------------14-----------|
e|-----------------------------------------------------------------------|


E|-------------------------------------------------------------|
B|-3h5-----3---------------------------------------------------|
G|------4-----4-2--0h2p0-----0-2br-(2)br-(2)br-(2)-br(2)br-(2)-|
D|------------------------2------------------------------------|
A|-------------------------------------------------------------|
e|-------------------------------------------------------------|

   Chorus                                         Ad Lib Solo
E|----------------------------------------------|---------------------------|
B|----------------------------------------------|--------------------15b----|
G|----------------------------------------------|---------------------------|
D|----------------------------------------------|---------------------------|
A|-(7)v-7\v-7v-(7)v-7v-(7)\--------5-------5/7v-|------w/bar +1-1/2---------|
e|---------------------------8-7-5----7-5-------|-(7)v-2--------------------|


E|-----------------17br-(17)br-17br-(17)-17br-(17)--12h15p12------|
B|-(15)vbr-(15)\----------------------------------------------15b-|
G|----------------------------------------------------------------|
D|----------------------------------------------------------------|
A|----------------------------------------------------------------|
e|----------------------------------------------------------------|

well thats how u play it enjoy 
comments
We did not receive enough feedback on this tab! Please rate:
print report bad tab
1 2 3 4 5
I want to post or [tab]
guest
You may want to rate the tab now too:
select rating
Please do not post tabs as comments. Select "correction" instead!