Oops, an error
Loading. Please wait.

Cold Gin bass

version 2
version 2

Whole song

Interactive

by KISS
8,433 views 9 this week
no commentswrite comment
1 2 3 4 5
x 10
add to favorites
×
Save as Personal and add changes to this tab that will be seen only by you. Learn more ›
×
You can save this tab as Personal to edit and correct it or add notes. All changes will be seen only by you. Learn more »
launch autoscroll
font size
0
reset
guitar tuner
backing track
0:00
0:00
edit
Autoscroll
slow
fast
+/-
esc
set tempo
stop
Kiss-Cold Gin
Kiss (1974) 
Transcribed by: playinbass1432
Email: playinbass1432@hotmail.com

Tune down 1/2 step

Intro:

                                                                Ab
Gb|-----------------|-----------------|-----------------|-----------------|
Db|-----------------|-----------------|-----------------|-------7/19\-----|
Ab|-----------------|-----------------|-----------------|-----------------|
Eb|-----------------|-----------------|-----------------|-----------------|

    Ab                                  Ab                B 
Gb|-----------------|-----------------|-----------------|-5---------------|
Db|-----------------|-----------------|-----------------|---7---5---------|
Ab|-----------------|-----------------|-----------------|---------7-5-----|
Eb|-5---------------|-----------------|-5---------------|-------------8---|

Pre Verse 1:

    Ab
Gb|-----------------|-----------------|-----------------|-----------------|
Db|-----------------|-----------------|-----------------|-----------------|
Ab|-----------------|-----------------|-----------------|-----------------|
Eb|-5-5-5-5-5-5-5-5-|-5-5-5-5-5-5-----|-5-5-5-5-5-5-5-5-|-5-5-5-5-5-5-----|

    B Ab                Eb  Ab          B Ab                Eb  Ab
Gb|-----------------|-----------------|-----------------|-----------------|
Db|-----------------|-----------------|-----------------|-----------------|
Ab|-3---------------|-----------------|-3---------------|-----------------|
Eb|---5-3-5---5---5-|-3-0-3-5-5-------|---5-3-5---5---5-|-3-0-3-5-5-------|

Verse 1:

    Ab                Ab                B Ab                Eb  Ab
Gb|-----------------|-----------------|-----------------|-----------------|
Db|-----------------|-----------------|-----------------|-----------------|
Ab|-----------------|-----------------|-3---------------|-----------------|
Eb|-5-5-------------|-5-5-------------|---5-3-5---5---5-|-3-0-3-5-5-------|

    Ab                Ab                B Ab                Eb  Ab
Gb|-----------------|-----------------|-----------------|-----------------|
Db|-----------------|-----------------|-----------------|-----------------|
Ab|-----------------|-----------------|-3---------------|-----------------|
Eb|-5-5-------------|-5-5-------------|---5-3-5---5---5-|-3-0-3-5-5-------|

    Ab                Ab                B Ab                Eb  Ab
Gb|-----------------|-----------------|-----------------|-----------------|
Db|-----------------|-----------------|-----------------|-----------------|
Ab|-----------------|-----------------|-3---------------|-----------------|
Eb|-5-5-------------|-5-5-------------|---5-3-5---5---5-|-3-0-3-5-5-------|

    Ab                Ab                B Ab                Eb  Ab
Gb|-----------------|-----------------|-----------------|-----------------|
Db|-----------------|-----------------|-----------------|-----------------|
Ab|-----------------|-----------------|-3---------------|-----------------|
Eb|-5-5-------------|-5-5-------------|---5-3-5---5---5-|-3-0-3-5-5-------|
   
    B Ab                Eb  Ab
Gb|-----------------|-----------------|
Db|-----------------|-----------------|
Ab|-3---------------|-----------------|
Eb|---5-3-5---5---5-|-3-0-3-5-5-------|

Chorus 1:

    Eb                Eb    F#  Db      Eb                Eb     F# Db
Gb|-----------------|-----------------|-----------------|-----------------|
Db|-----------------|---------5-------|-----------------|---------5-------|
Ab|-7-7\------------|-7-7-------5-----|-7-7\------------|-7-7-------5-----|
Eb|-----------------|-----------------|-----------------|-----------------|

    Eb                Eb    F#  Db      Eb                  Eb
Gb|-----------------|-----------------|-----------------|-----------------|
Db|-----------------|---------5-------|-----------------|-----------------|
Ab|-7-7\------------|-7-7-------5-----|-7-7\------------|-----------------|
Eb|-----------------|-----------------|-----------------|---0-2---3-0-4---|

Pre Verse 2:

    B Ab                Eb  Ab          B Ab                Eb  Ab
Gb|-----------------|-----------------|-----------------|-----------------|
Db|-----------------|-----------------|-----------------|-----------------|
Ab|-3---------------|-----------------|-3---------------|-----------------|
Eb|---5-3-5---5---5-|-3-0-3-5-5-------|---5-3-5---5---5-|-3-0-3-5-5-------|

    B Ab                Eb  Ab          B Ab                Eb  Ab
Gb|-----------------|-----------------|-----------------|-----------------|
Db|-----------------|-----------------|-----------------|-----------------|
Ab|-3---------------|-----------------|-3---------------|-----------------|
Eb|---5-3-5---5---5-|-3-0-3-5-5-------|---5-3-5---5---5-|-3-0-3-5-5-------|

Verse 2:

    Ab                Ab                B Ab                Eb  Ab
Gb|-----------------|-----------------|-----------------|-----------------|
Db|-----------------|-----------------|-----------------|-----------------|
Ab|-----------------|-----------------|-3---------------|-----------------|
Eb|-5-5-------------|-5-5-------------|---5-3-5---5---5-|-3-0-3-5-5-------|

    Ab                Ab                B Ab                Eb  Ab
Gb|-----------------|-----------------|-----------------|-----------------|
Db|-----------------|-----------------|-----------------|-----------------|
Ab|-----------------|-----------------|-3---------------|-----------------|
Eb|-5-5-------------|-5-5-------------|---5-3-5---5---5-|-3-0-3-5-5-------|

    Ab                Ab                B Ab                Eb  Ab
Gb|-----------------|-----------------|-----------------|-----------------|
Db|-----------------|-----------------|-----------------|-----------------|
Ab|-----------------|-----------------|-3---------------|-----------------|
Eb|-5-5-------------|-5-5-------------|---5-3-5---5---5-|-3-0-3-5-5-------|

    Ab                Ab                B Ab                Eb  Ab
Gb|-----------------|-----------------|-----------------|-----------------|
Db|-----------------|-----------------|-----------------|-----------------|
Ab|-----------------|-----------------|-3---------------|-----------------|
Eb|-5-5-------------|-5-5-------------|---5-3-5---5---5-|-3-0-3-5-5-------|
   
    B Ab                Eb  Ab
Gb|-----------------|-----------------|
Db|-----------------|-----------------|
Ab|-3---------------|-----------------|
Eb|---5-3-5---5---5-|-3-0-3-5-5-------|

Chorus 2:

    Eb                Eb    F#  Db      Eb                Eb     F# Db
Gb|-----------------|-----------------|-----------------|-----------------|
Db|-----------------|---------5-------|-----------------|---------5-------|
Ab|-7-7\------------|-7-7-------5-----|-7-7\------------|-7-7-------5-----|
Eb|-----------------|-----------------|-----------------|-----------------|

    Eb                Eb    F#  Db      Eb                  Eb
Gb|-----------------|-----------------|-----------------|-----------------|
Db|-----------------|---------5-------|-----------------|-----------------|
Ab|-7-7\------------|-7-7-------5-----|-7-7\------------|-----------------|
Eb|-----------------|-----------------|-----------------|---0-2-2-3-3-4-4-|

Pre-Interlude: 

    B Ab                Eb  Ab          B Ab                Eb  Ab
Gb|-----------------|-----------------|-----------------|-----------------|
Db|-----------------|-----------------|-----------------|-----------------|
Ab|-3---------------|-----------------|-3---------------|-----------------|
Eb|---5-3-5---5---5-|-3-0-3-5-5-------|---5-3-5---5---5-|-3-0-3-5-5-------|

    B Ab                Eb  Ab          B Ab                Eb  F#
Gb|-----------------|-----------------|-----------------|-----------------|
Db|-----------------|-----------------|-----------------|-----------------|
Ab|-3---------------|-----------------|-3---------------|-----------------|
Eb|---5-3-5---5---5-|-3-0-3-5-5-------|---5-3-5---5---5-|-3-0-5-3---------|

Gb|-----------------|
Db|-----------------|
Ab|----------/10----|
Eb|-----------------|

Interlude:

    F#      B        B                  F#      B
Gb|-----------------|-----------------|-----------------|-----------------|
Db|-----------------|-----------------|-----------------|-----------------|
Ab|---------3-3-----|323232--323232---|---------3-3-----|-----------------|
Eb|-3-3-------------|--------------1--|-3-3-------------|-3---------------|

    F#      B        B            E     F#      B          
Gb|-----------------|-----------------|-----------------|-----------------|
Db|-----------------|-----------------|-----------------|-----------------|
Ab|---------3-3-----|323232--323232---|---------3-3-----|-----------------|
Eb|-3-3-------------|--------------1--|-3-3-------------|-3---------------|

   Ab       Db       Db           F#    Ab      Db                                    
Gb|-----------------|767676--767676---|-----------------|-----------------|
Db|-----------------|--------------5--|-----------------|-----------------|
Ab|---------5-5-----|-----------------|---------5-5-----|-----------------|
Eb|-5-5-------------|-----------------|-5-5-------------|-----------------|

   Ab       Db       Db           F#    Ab      Db                                    
Gb|-----------------|767676--767676---|-----------------|-----------------|
Db|-----------------|--------------5--|-----------------|-----------------|
Ab|---------5-5-----|-----------------|---------5-5-----|-5454545454545454|
Eb|-5-5-------------|-----------------|-5-5-------------|-----------------|

    Eb                                                    Eb    Db    B
Gb|-----------------|-----------------|-----------------|-----------------|
Db|-----------------|-----------------|-----------------|-----------------|
Ab|-7-7-------------|-7-7-------------|-7-7-------------|-7-----5---------|
Eb|-----------------|-----------------|-----------------|-------------8---|

    Ab
Gb|-----------------|-----------------|-----------------|-----------------|
Db|-----------------|-----------------|-----------------|-----------------|
Ab|-----------------|-----------------|-----------------|-----------------|
Eb|-5---------------|-----------------|-----------------|-----------------|


Chorus 3:

    Eb                Eb    F#  Db      Eb                Eb     F# Db
Gb|-----------------|-----------------|-----------------|-----------------|
Db|-----------------|---------5-------|-----------------|---------5-------|
Ab|-7-7\------------|-7-7-------5-----|-7-7\------------|-7-7-------5-----|
Eb|-----------------|-----------------|-----------------|-----------------|

    Eb                Eb    F#  Db      Eb                  Eb
Gb|-----------------|-----------------|-----------------|-----------------|
Db|-----------------|---------5-------|-----------------|-----------------|
Ab|-7-7\------------|-7-7-------5-----|-7-7\------------|-----------------|
Eb|-----------------|-----------------|-----------------|---0-2-2-3-3-4-4-|

    B Ab                Eb  Ab          B Ab                Eb  Ab
Gb|-----------------|-----------------|-----------------|-----------------|
Db|-----------------|-----------------|-----------------|-----------------|
Ab|-3---------------|-----------------|-3---------------|-----------------|
Eb|---5-3-5---5---5-|-3-0-3-5-5-------|---5-3-5---5---5-|-3-0-3-5-5-------|

Outro:

    B                                   B                               
Gb|-5---------------|-----------------|-5---------------|-----------------|
Db|---7-5-7---5-----|-----------------|---7-5-7---5-----|-----------------|
Ab|-------------7-5-|---3---------6-7-|-------------7-5-|-----------------|
Eb|-----------------|-----5-3-5-8-----|-----------------|---8-5-3-5-------|

                                                                      Ab
Gb|-----------------|-----------------|-----------------|-----------------|
Db|-----------------|-----------------|-----------------|-----------------|
Ab|-----------------|-----------------|-----------------|-----------------|
Eb|-----------------|-----------------|-----------------|-------------5\\\|
Suggest correction
Creating personal tab
Creating personal tab
You can edit any tab online and save it as your Personal.

You can edit, replace or remove any tab part or add personal notes – all changes will be seen only by you.

Personal tabs can be accessed anytime from any device, even offline.
Learn more »
comments
print report bad tab
guest
You may want to rate the tab now too:
select rating
Wanna post a correction for this tab? Suggest correction