Oops, an error
Loading. Please wait.

Detroit Rock City Drum Tab

version 1
version 1

Whole song

by KISS
7,399 views 6 this week
no commentswrite comment
1 2 3 4 5
please rate
add to favorites
launch autoscroll
font size
0
reset
guitar tuner
Autoscroll
slow
fast
+/-
esc
set tempo
stop
Help us to improve Ultimate-Guitar.com Take our survey!
×
Author
Detroit Rock City
Kiss
Destroyer


(Intro) Rest 3 Measures
CC|------------X---|X---------------|----------------|X---------------|
HH|----------------|----X---X---X---|X---X---X-------|----X---X---X---|
SN|000-000-0-------|----0-------0---|----0-------0-0-|----0-------0---|
 B|----------------|--------0-0-----|0-0-----0-0-----|--------0-0-----|
   1 + 2 + 3 + 4 +  1 + 2 + 3 + 4 +  1 + 2 + 3 + 4 +  1 + 2 + 3 + 4 +
  |--Play-4-Times--|
CC|----------------|------------X---|X---------------|------------X---|
T1|----------------|----------------|----------------|-0--0-0---------|
T2|----------------|----------------|----------------|0-0--0--0-------|
HH|X---X---X---X---|----------------|----X---X---X---|----------------|
SN|----0-------0---|000-000-0-------|----0-------0---|----------------|
 B|0-0-----0-0-----|----------------|--------0-0-----|----------------|
   1 + 2 + 3 + 4 +  1 + 2 + 3 + 4 +  1 + 2 + 3 + 4 +  1 + 2 + 3 + 4 +
CC|X---------------|----------------|
HH|----X---X---X---|X---X---X---X---|
SN|----0-------0---|----0-------0---|
 B|--------0-0-----|0-0-----0-0-----|
   1 + 2 + 3 + 4 +  
(Verse 1)
  |--Play-4-Times--|                |--Play-3-Times--|
CC|----------------|X---------------|----------------|X---------------|
HH|X---X---X---X---|----X---X---X---|X---X---X---X---|----X---X---X---|
SN|----0-------0---|----0-------0---|----0-------0---|----0-------0---|
 B|0-0-----0-0-----|0-0-----0-0-----|0-0-----0-0-----|0-0-----0-0-----|
   1 + 2 + 3 + 4 +  1 + 2 + 3 + 4 +  1 + 2 + 3 + 4 +  1 + 2 + 3 + 4 +
  |--Play-3-Times--|                |--Play-2-Times--|
CC|----------------|X---------------|----------------|------------X---|
HH|X---X---X---X---|----X---X---X---|X---X---X---X---|X---X---X-------|
SN|----0-------0---|----0-------0---|----0-------0---|----0----0-0----|
 B|0-0-----0-0-----|0-0-----0-0-----|0-0-----0-0-----|0-0-----0-------|
   1 + 2 + 3 + 4 +  1 + 2 + 3 + 4 +  1 + 2 + 3 + 4 +  1 + 2 + 3 + 4 + 
(Chorus)
CC|X---------------|------------X---|X---------------|----------------|
HH|----X---X---X---|----------------|----X---X---X---|X---X---X---X---|
SN|----0-------0---|000-000-0-------|----0-------0---|----0-------0---|
 B|--------0-0-----|----------------|0-0-----0-0-----|0-0-----0-0-----|
   1 + 2 + 3 + 4 +  1 + 2 + 3 + 4 +  1 + 2 + 3 + 4 +  1 + 2 + 3 + 4 +
(Pre-Bridge)
CC|X---------------|----------------|----------------|------------X---|
HH|----X---X---X---|X---X---X---X---|X---X---X---X---|----------------|
SN|----0-------0---|----0-------0---|----0-------0---|000-000-0-------|
 B|0-0-----0-0-----|0-0-----0-0-----|0-0-----0-0-----|----------------|
   1 + 2 + 3 + 4 +  1 + 2 + 3 + 4 +  1 + 2 + 3 + 4 +  1 + 2 + 3 + 4 +
CC|X---------------|------------X---|X---------------|----------------|
T1|----------------|000-------------|----------------|----------------|
T2|----------------|----000---------|----------------|----------------|
T3|----------------|--------0-------|----------------|----------------|
HH|----X---X---X---|----------------|----X---X---X---|X---X---X---X---|
SN|----0-------0---|----------------|----0-------0---|----0-------0---|
 B|--------0-0-----|----------------|0-0-----0-0-----|0-0-----0-0-----|
   1 + 2 + 3 + 4 +  1 + 2 + 3 + 4 +  1 + 2 + 3 + 4 +  1 + 2 + 3 + 4 +
(Verse 2)
                   |--Play-3-Times--|                |--Play-3-Times--|
CC|X---------------|----------------|X---------------|----------------|
HH|----X---X---X---|X---X---X---X---|----X---X---X---|X---X---X---X---|
SN|----0-------0---|----0-------0---|----0-------0---|----0-------0---|
 B|--------0-0-----|0-0-----0-0-----|0-0-----0-0-----|0-0-----0-0-----|
   1 + 2 + 3 + 4 +  1 + 2 + 3 + 4 +  1 + 2 + 3 + 4 +  1 + 2 + 3 + 4 +
                   |--Play-3-Times--|                |--Play-2-Times--|
CC|X---------------|----------------|X---------------|----------------|
HH|----X---X---X---|X---X---X---X---|----X---X---X---|X---X---X---X---|
SN|----0-------0---|----0-------0---|----0-------0---|----0-------0---|
 B|0-0-----0-0-----|0-0-----0-0-----|--------0-0-----|0-0-----0-0-----|
   1 + 2 + 3 + 4 +  1 + 2 + 3 + 4 +  1 + 2 + 3 + 4 +  1 + 2 + 3 + 4 +
CC|------------X---|
HH|----------------|
SN|000-000-0-------|
 B|----------------|
   1 + 2 + 3 + 4 +

  (Repeat Chorus)

  (Bridge)
  |--Play-7-Times--|	         |--Play-7-Times--|
CC|----------------|X---X-----------|----------------|X---------------|
HH|X---X---X---X---|--------X---X---|X---X---X---X---|----X---X---X---|
SN|----0-------0---|----------------|----0-------0---|----0-------0---|
 B|0-0-----0-0-----|--------0---0---|0-0-----0-0-----|--------0-0-----|
   1 + 2 + 3 + 4 +  1 + 2 + 3 + 4 +  1 + 2 + 3 + 4 +  1 + 2 + 3 + 4 +
  |--Play-4-Times--|
CC|----------------|------------X---|X---------------|------------X---|
HH|X---X---X---X---|----------------|----X---X---X---|----------------|
SN|----0-------0---|000-000-0-------|----0-------0---|000-000-0-------|
 B|0-0-----0-0-----|----------------|--------0-0-----|----------------|
   1 + 2 + 3 + 4 +  1 + 2 + 3 + 4 +  1 + 2 + 3 + 4 +  1 + 2 + 3 + 4 +
CC|X---------------|----------------|
HH|----X---X---X---|X---X---X---X---|
SN|----0-------0---|----0-------0---|
 B|--------0-0-----|0-0-----0-0-----|
   1 + 2 + 3 + 4 +  1 + 2 + 3 + 4 +
  (Repeat Verse)

  (Repeat Chorus)

  (Drum/Guitar Solo)  
  |--Play-2-Times--|                                 |-Play-15-Times--|
CC|----------------|----------------|------------X---|----------------|
HH|X---X---X---X---|----------------|----------------|X---X---X---X---|
SN|----0-------0---|000-000-000-000-|000-000-000-----|----0-------0---|
 B|0-0-----0-0-----|----------------|----------------|0-0-----0-0-----|
   1 + 2 + 3 + 4 +  1 + 2 + 3 + 4 +  1 + 2 + 3 + 4 + 
						     
CC|------------X---|X---------------|------------X---|X---------------|
RC|----------------|----X---X---X---|----------------|----X---X---X---|
T1|----------------|----------------|-----00-0-------|----------------|
SN|000-000-0-------|----0-------0---|000-0-----------|----0-------0---|
 B|------------0---|0-------0-0-----|------------0---|0-------0-0-----|
   1 + 2 + 3 + 4 +  1 + 2 + 3 + 4 +  1 + 2 + 3 + 4 +  1 + 2 + 3 + 4 +
                                    |--Play-2-Times--|
CC|----------------|X---------------|----------------|------------X---|
RC|X---X---X---X---|----X---X---X---|X---X---X---X---|----------------|
T1|----------------|----------------|----------------|----------------|
SN|----0-------0---|----0-------0---|----0-------0---|000-000-0-------|
 B|0-0-----0-0-----|0-------0-0-----|0-0-----0-0-----|------------0---|
   1 + 2 + 3 + 4 +  1 + 2 + 3 + 4 +  1 + 2 + 3 + 4 +  1 + 2 + 3 + 4 +
CC|X---------------|------------X---|X---------------|----------------|
RC|----X---X---X---|----------------|----X---X---X---|X---X---X---X---|
T1|----------------|-----00-0-------|----------------|----------------|
SN|----0-------0---|000-0-----------|----0-------0---|----0-------0---|
 B|0-------0-0-----|------------0---|0-0-----0-0-----|0-0-----0-0-----|
   1 + 2 + 3 + 4 +  1 + 2 + 3 + 4 +  1 + 2 + 3 + 4 +  1 + 2 + 3 + 4 +
  (Repeat Verse)

  (Repeat Chorus)

  (Outro)
T1|----------------|----------------|0---------------|
T1|----------------|----------------|----0-----------|
T3|----------------|----------------|--------0---0---|
HH|X---X---X---X---|----------------|----------------|
SN|----------------|000-000-000-000-|----------------|
   1 + 2 + 3 + 4 +  1 + 2 + 3 + 4 +  1 + 2 + 3 + 4 +
CC|X---------------|----------------|X---------------|----------------|----X-|
HH|----X---X---X---|X---X---X---X---|----X---X---X---|X---X---X---X---|------|
SN|----0-------0---|----0-------0-0-|----0-------0---|----0-------0---|0-0---|
 B|--------0-0-----|0-0-----0-0-----|0-------0-0-----|0-0-----0-0-----|------|
   1 + 2 + 3 + 4 +  1 + 2 + 3 + 4 +  1 + 2 + 3 + 4 +  1 + 2 + 3 + 4 +  1 + 2.
Suggest correction
What's this?
You can suggest a correction to this tab. Community and Mods will review your correction and vote to approve or reject it.
comments
We did not receive enough feedback on this tab! Please rate:
print report bad tab
1 2 3 4 5
guest
You may want to rate the tab now too:
select rating
Please do not post tabs as comments. Select "correction" instead!