Oops, an error
Loading. Please wait.
We have an official Detroit Rock City tab made by UG professional guitarists. Check out the tab »
×
by KISS
12,846 views 9 this week
3 commentsread comments
1 2 3 4 5
x 3
add to favorites
×
Save as Personal and add changes to this tab that will be seen only by you. Learn more ›
×
You can save this tab as Personal to edit and correct it or add notes. All changes will be seen only by you. Learn more »
launch autoscroll
font size
0
reset
how to read this tab
guitar tuner
backing track
0:00
0:00
edit
Autoscroll
slow
fast
+/-
esc
set tempo
stop
Detroit Rock City-KISS (Eb Ab Db Gb Bb Eb)
INTRO
Q=90 4/4
(GTR 1)
|---------------------------------|-------------------------------|---------|----------|
|---------------------------------|-------------------------------|---------|----------|
|---------------------------------|-------------------------------|----2----|------4---|
|---------------------------------|-------------------------------|----2----|------4---|
|-4-2-4-2-4-2-4-2-4-2-4-2-4-2-4-2-|-4-2-4-2-4-2-4-2-4-4-4-4-4-4-4-|----0----|------2---|
|---------------------------------|-------------------------------|-0-------|--0-------|
|
|(GTR 2)
|---------------------------------|-------------------------------|---------|----------|
|---------------------------------|-------------------------------|---------|----------|
|---------------------------------|-------------------------------|----2----|------4---|
|---------------------------------|-6-4-6-4-6-4-6-4-6-6-6-6-6-6-6-|----2----|------4---|
|---------------------------------|-------------------------------|----0----|------2---|
|---------------------------------|-------------------------------|-0-------|--0-------|

|---------------------------------|--------------------------------|---------|----------||
|---------------------------------|--------------------------------|---------|----------||
|---------------------------------|--------------------------------|-----2---|------4---||
|---------------------------------|--------------------------------|-----2---|------4---||
|-4-2-4-2-4-2-4-2-4-2-4-2-4-2-4-2-|-4-2-4-2-4-2-4-2-4-4-4-4-4-4-4--|-----0---|------2---||
|---------------------------------|--------------------------------|--0------|---0------||
|
|---------------------------------|--------------------------------|---------|----------||
|---------------------------------|--------------------------------|---------|----------||
|---------------------------------|--------------------------------|-----2---|------4---||
|-6-4-6-4-6-4-6-4-6-4-6-4-6-4-6-4-|-6-4-6-4-6-4-6-4-6-6-6-6-6-6-6--|-----2---|------4---||
|---------------------------------|--------------------------------|-----0---|------2---||
|---------------------------------|--------------------------------|--0------|---0------||
      
VERSE                     ______________  _________________
(both guitars)           | 1             | 2         * 3rd time 
|-------|-----|---------|--------------||-----------------|| D.S.
|o------|-----|---------|-------------o||-----------------|| Al
|-------|-----|---9---x-|---------11---||--------11-------|| Coda
|--11---|-----|---9---x-|--9------11---||--9-----11-------|| (@)
|o-11---|-----|---7---x-|--9------9---o||--9-----9--------||
|--9----|-----|---0-----|--7-----------||--7--------x/19\-||
| *=One GTR does the slide
| (4th time)
|-------|-----|---------|--------------||-----------------||4th time
|-5~~---|-----|---------|--------------||-----------------|| D.S.
|-6~~---|-----|---------|--------------||-----------------|| Al 
|-------|-----|---------|--------------||-----------------|| Coda 
|-------|-----|---------|--------------||-----------------|| (§)
|-------|-----|---------|--------------||-----------------||

CHORUS $
(both guitars)          
|-----------|-------------| 
|-----------|-------------| 
|----2------|------4------| 
|----2------|------4------|  
|----0------|------2------|
|-0---------|--0----------|

(Played only on first Chorus)
|---------------------------------|-----------------------------------|
|---------------------------------|-----------------------------------|
|6-4-6-4-6-4-6-4--6-4-6-4-6-4-6-4-|-6-4-6-4-6-4-6-4----6--4-6-4-6/----|
|6-4-6-4-6-4-6-4--6-4-6-4-6-4-6-4-|-6-4-6-4-6-4-6-4----6--4-6-4-6/----|
|---------------------------------|-----------------------------------|
|---------------------------------|-----------------------------------|
|
|                                               2nd time D.S. Al coda(&)
|---------------------------------|-----------------------------------|
|---------------------------------|-----------------------------------|
|---------------------------------|-----------------------------------|
|---------------------------------|------------2-------------2--------|
|--4---4-2-----2-----4------------|--4---2-4------4--2---------4------|
|----------4----------------------|--------------------2--4-----------|

                                                        D.S. Al Coda($)
|---------------------------------|-----------------------------------||
|-----5---------------------------|-----------------------------------||
|-----2---------------------------|--------4--------------------------||
|-----2---------------------------|--------4--------------------------||
|-----0---------------------------|--------2--------------------------||
|-0-------------------------------|---0-------------------------------||
|
|---------------------------------|-----------------------------------||
|-----5---------------------------|--------4--------------------------||
|-----2---------------------------|--------4--------------------------||
|-----2---------------------------|--------4--------------------------||
|-----0---------------------------|----/6-----------------------------||
|-0-------------------------------|-----------------------------------||

Interlude &
|-------------------------------|
|-------------------------------|
|-------------------------------|
|---------------------------2---|
|-4--2-----2----4---4--2-4-----4|
|-------4-----------------------|

|-----------------------|-------------------------------|
|-----------------------|-------------------------------|
|-----------------------|-------------------------------|
|-----------------------|-------------4-------------4---|
|--6---6--4-----4----6--|---6----4--6-----6--4--------6-|
|------------6----------|----------------------4-6------|
|
|-----------------------|-----------------------------|
|-----------------------|-----------------------------|
|--8--------------------|--6--------------------------|
|--8--------------------|--6--------------------------|
|--6--------------------|--4--------------------------|
|-----------------------|-----------------------------|
                                       
                                                      D.S. Al Coda($)
|---------------------------------|--------------|----------------||
|---------------------------------|--------------|------4---------||
|---------------------------------|-----2--------|------4---------||
|------------4-------------2------|-----2--------|------4---------||
|--6--4--6-------6------------4---|-----0--------|--/6------------||
|-------------------2---4---------|-0------------|----------------||
|
|---------------------------------|--------------|----------------||
|---------------------------------|--------------|----------------||
|--11------------9-9-9-9-9-9-9----|-----2--------|--------4-------||
|--11------------9-9-9-9-9-9-9----|-----2--------|--------4-------||
|--9-------------7-7-7-7-7-7-7----|-----0--------|--------2-------||
|---------------------------------|--0-----------|--0-------------||

Drum Fill
(Both guitars)                                       this measure it for 1 GTR
|---------|-------------|--------------------------|---------------------------||
|---------|-------------|--------------------------|---------------------------||
|----2----|----4--------|--6-----------------------|------------------------8--||
|----2----|----4--------|--6-----------------------|------------------6--9-----||
|----0----|----2--------|--4-----------------------|---------------------------||
|-0-------|-0-------4-4-|--------------------------|---------------------------||

GUITAR SOLO w/pitch shifter                                                      **
|------------------------|-------------------------|------------------------|------------|
|------------------------|-------------------------|------------------------|----------7-|
|-6~~---9--8--6--9--8--6=|=\4~---8--9--8-----------|-------6\=4-2---6\=4-2\=|=1~--4--7-8-|
|------------------------|-----9----------9\=7--6==|=/7~~-------------------|-----6--9---|
|------------------------|-------------------------|------------------------|------------|
|------------------------|-------------------------|------------------------|------------|
**=2 GTRs arranged for one

DOUBLE GUITAR SOLO w/ pitch shifter and/or octaver (I think both guitars)
|------------------------|-------------------------|--------------|-------------------|
|-5~----9--7--5--9--7--5=|=\4~---7--9--7-----------|-----------7--|--5---5-5-5-5-5-5--|
|-6~~---9--8--6--9--8--6=|=\4~-7-8--9--8--7\=5--4==|=/5~~---4--8--|--6---6-6-6-6-6-6--|
|------------------------|-----9----------9\=7--6==|=/7~~---6-----|-------------------|
|------------------------|-------------------------|--------------|-------------------|
|------------------------|-------------------------|--------------|-------------------|

|------------------------|-----------------------|-----------------|---------------------|
|-4-5---9--7--5--9--7--5=|=\4~--7--9--7----------|-----9--7--5--4--|-5---7--5--4--2------|
|-4-6---9--8--5--9--8--6=|=\4~--8--9--8-9--7--11-|-9---9--8--6--4--|-6---8--6--4--3---4--|
|------------------------|--------------10-9--12-|-10--------------|------------------5--|
|------------------------|-----------------------|-----------------|---------------------|
|------------------------|-----------------------|-----------------|---------------------|
|
|------------------------|-----------------------|-----------------|---------------------|
|------------------------|-----------------------|-----------------|---------------------|
|----2-------------------|-----4-----------------|-----------------|---------------------|
|----2-------------------|-----4-----------------|-----------------|--------2--------2---|
|----0-------------------|-----2-----------------|-4---4--2---2--4-|-4--2-4---4-4------4-|
|-0----------------------|-0---------------------|----------4------|--------------2-4----|

                          D.S. Al Coda($)
|------------------------|-----------------------||
|---9--9--7--5--9--7--5==|=\4~--7--9--7--------7-||
|-0/9--9--8--6--9--8--6==|=\4~--8--9--8--9--7--8-||
|-2/---------------------|---------------10-9----||
|------------------------|-----------------------||
|------------------------|-----------------------||
|
|------------------------|-----------------------||
|------------------------|-----------------------||
|-----2------------------|-----4-----------------||
|-----2------------------|-----4-----------------||
|-----0------------------|-----2-----------------||
|-0----------------------|-0---------------------||

OUTRO (§)                            2/4(if not is 2/2)
|------------|-------------------|------------|---------------------|
|------------|-------------------|------------|---------------------|
|-----2------|-----4-------------|-4--6-------|---------------------|
|-----2------|-----4-------------|-4--6-------|---------------------|
|-----0------|-----2-------------|-2--4-------|---------------------|
|-0----------|-0-----------------|------------|---------------------|
|
|------------|-------------------|------------|---------------------|
|------------|--------5--7--5--4-|----5-------|---------------------|
|------------|--------6--8--6--4-|-4--6-------|---------------------|
|------------|-------------------|-6----------|---------------------|
|------------|-------------------|------------|---------------------|
|------------|-------------------|------------|---------------------|

4/4
|-----------------|----------------------|------------|---------------------*|
|-----------------|----------------------|------------|---------------------*|
|---2-------------|-----4----------------|-4--6-------|---------------------*|
|---2-------------|-----4----------------|-4--6-------|---------------------*|
|---0-------------|-----2----------------|-2--4-------|---------------------*|
|-0---------------|-0--------------------|------------|---------------------*|
|
|-----------------|----------------------|------------|---------------------*|
|-----9-7-5-9-7-5-|-9~~----7--9--7--5==4-|----5-------|---------------------*|
|-----9-8-6-9-8-6-|-13~----8--11-8--6==4-|-4--6-------|---------------------*|
|-----------------|----------------------|-5----------|---------------------*|
|-----------------|----------------------|------------|---------------------*|
|-----------------|----------------------|------------|---------------------*|


            
            
Suggest correction
Creating personal tab
Creating personal tab
You can edit any tab online and save it as your Personal.

You can edit, replace or remove any tab part or add personal notes – all changes will be seen only by you.

Personal tabs can be accessed anytime from any device, even offline.
Learn more »
Give kudos to tab author, rate the tab!
1 2 3 4 5
comments
print report bad tab
3 comments total.
0 reply
80'smetaladdict 565 Jul 08, 2009 09:15 AM

Overall this is an excellent tab man good job. But...When the solo came up it was a little hard to follow and there seemed to be some notes that seem to be there when i played the song and overlooked this tab. Overall though the solo was pretty close.

-Garian

0 reply
80'smetaladdict 565 Jul 08, 2009 09:17 AM

whoops (there were some notes that seemed to be there when they were'nt when i played the song and overlooked this tab.)*

my fault :)

-1 reply
cheesedips 20 Jul 22, 2014 03:58 PM

worst ever tabsss

guest
You may want to rate the tab now too:
select rating
Wanna post a correction for this tab? Suggest correction