Oops, an error
Loading. Please wait.

Doncha Hesitate bass

version 1
version 1

Whole song

Interactive

by KISS
334 views 1 this week
1 commentread comment
1 2 3 4 5
2 more votes to show rating
add to favorites
×
Save as Personal and add changes to this tab that will be seen only by you. Learn more ›
×
You can save this tab as Personal to edit and correct it or add notes. All changes will be seen only by you. Learn more »
launch autoscroll
font size
0
reset
guitar tuner
edit
Autoscroll
slow
fast
+/-
esc
set tempo
stop
Author
Song can be found on the KISS Box Set


Intro
                                                        
Gb|----------------------0----0--------------------|
Db|--------------0----2----------3--2--0h-2--------|
Ab|--------1h-2------------------------------1h-2--|
Eb|--3--3------------------------------------------|


                                                    
Gb|------------------------------------------------|
Db|------------------------------3--2--0h-2--------|
Ab|--3--3--1--0-------0--5----5--------------1h-2--|
Eb|--------------3---------------------------------|


                                                    
Gb|----------------------0----0--------------------|
Db|--------------0----2----------3--2--0h-2--------|
Ab|--------1h-2------------------------------1h-2--|
Eb|--3--3------------------------------------------|


                                              
Gb|------------------------------------------------|
Db|------------------------------------------------|
Ab|--3--3--1--0--------0--5------------------------|
Eb|--------------3--3------------------------------|


Verse 1
                                                  
Gb|------------------------------------------------|
Db|------------5-----------------------------------|
Ab|---------------3--4--5----5--3----2--0----------|
Eb|--3----3--------------------------------3--1----|


                                               
Gb|------------------------------------------------|
Db|------3----3--0----------------5----------------|
Ab|-----------------3-------2--3-------------------|
Eb|--------------------3-------------------1-------|


                                                  
Gb|------------------------------------------------|
Db|-------5----5-----------------------------------|
Ab|---------------3--4--5----5--3----2--0----------|
Eb|--3-------------------------------------3--1----|


                                               
Gb|------------------------------------------------|
Db|------3----3--0----------------5----------------|
Ab|-----------------3-------2--3-----------0-------|
Eb|--------------------3---------------------------|


Pre-chorus
                                                 
Gb|------------------------------------------------|
Db|------------------------------------------------|
Ab|--0----0----0--2--3--5----5--3----2----0--0-----|
Eb|------------------------------------------------|


                                                 
Gb|------------------------------------------------|
Db|------------------------------------------------|
Ab|--0----0----0--2--3--5----5---------------0-----|
Eb|-----------------------------0----2----3--------|


                                                 
Gb|------------------------------------------------|
Db|------------------------------------------------|
Ab|--0----0----0--2--3--5----5--3----2----0--------|
Eb|------------------------------------------3/----|


                                                
Gb|------------------------------------------------|
Db|------------------------------------------------|
Ab|-------0----0--2--3--5----5---------------------|
Eb|--5--------------------------0----2----3--------|


Chorus
                                                  
Gb|------------------------------------------------|
Db|------------5-----------------------------------|
Ab|---------------3--4--5----5--3----2--0-----3----|
Eb|--3----3--------------------------------3-------|


                                                
Gb|------------------------------------------------|
Db|---------------------------5----5--x------------|
Ab|--------3--5----5---------------------5--3------|
Eb|-------------------3----3-----------------------|


                    Interlude
                                               
Gb|---------------------|-------------------0------|
Db|---------------------|-----------0----2---------|
Ab|--------3--5---------|-----1h-2-----------------|
Eb|------------------3--|--3-----------------------|


                                                    
Gb|----0-------------------------------------------|
Db|-------3--2--0h-2-------------------------------|
Ab|-------------------1h-2--3--3--1--0-------0--5--|
Eb|-------------------------------------3----------|


                                                    
Gb|---------------------------------------------0--|
Db|-------3--2--0h-2--------------------0----2-----|
Ab|----5--------------1h-2--------1--2-------------|
Eb|-------------------------3--3-------------------|


                                                    
Gb|----0-------------------------------------------|
Db|-------3--2--0h-2-------------------------------|
Ab|-------------------1h-2--3--3--1--0-------0--5--|
Eb|-------------------------------------3----------|


                            Verse 2
                                                   
Gb|-----------------------|------------------------|
Db|-----3--2--0h-2--------|------------5-----------|
Ab|--5--------------1h-2--|---------------3--4--5--|
Eb|-----------------------|--3----3----------------|


                                                 
Gb|------------------------------------------------|
Db|----------------------------3----3--0-----------|
Ab|----5--3----2--0-----------------------3--------|
Eb|------------------3--1--------------------3-----|


                                                  
Gb|------------------------------------------------|
Db|----------5----3--2---------------5-------------|
Ab|----2--3-----------------------------3--4--5----|
Eb|---------------------3--3----3------------------|


                                                 
Gb|------------------------------------------------|
Db|----------------------------3----3--0-----------|
Ab|----5--3----2--0-----------------------3--------|
Eb|------------------3--1--------------------3-----|


                          Pre-chorus                         
                       
Gb|----------------------|-------------------------|
Db|----------5-----------|-------------------------|
Ab|----2--3-----------0--|--0----0----0--2--3--5---|
Eb|----------------------|-------------------------|
                            < - - - - - - - - 3x -

                                                  
Gb|------------------------------------------------|
Db|------------------------------------------------|
Ab|----5--3----2--0--------0----0----0--2--3--5----|
Eb|------------------3h-4--------------------------|
   - - - - - - - - - - - >

 
                            Chorus
                                                 
Gb|-----------------------|------------------------|
Db|-----------------------|------------5-----------|
Ab|----5--5----5--2--0----|---------------3--4--5--|
Eb|---------------------3-|--3----3----------------|


                                                
Gb|------------------------------------------------|
Db|------------------------------------------------|
Ab|----5--5----5--3--0--3--------3--5----5---------|
Eb|-----------------------------------------3------|


                                                
Gb|------------------------------------------------|
Db|------------5-----------------------------------|
Ab|-------------------3--3------3--5--3--0---------|
Eb|----3--3---------------------------------1------|


Guitar solo
                                                  
Gb|------------------------------------------------|
Db|-------3----3--0-------------3----3--0----------|
Ab|------------------3---------------------3-------|
Eb|----1----------------1----1----------------3----|


                                                  
Gb|------------------------------------------------|
Db|----------5----3--2-------------5----3--0-------|
Ab|----2--3------------------2--3------------------|
Eb|---------------------3---------------------1----|


                                                  
Gb|------------------------------------------------|
Db|-------3----3--0-------------3----3--0----------|
Ab|------------------3---------------------3--6----|
Eb|----1----------------1----1---------------------|


                                           
Gb|------------------------------------------------|
Db|------------------------------------------------|
Ab|------6----6--6--6--5---------------------------|
Eb|------------------------------------------------|


Interlude
                                                    
Gb|----------------------0----0--------------------|
Db|--------------0----2----------3--2--0h-2--------|
Ab|--------1h-2------------------------------1h-2--|
Eb|--3--3------------------------------------------|
    < - - - - - - - - - - - - - - - - - - - - 2x - 

                                                    
Gb|------------------------------------------------|
Db|------------------------------3--2--0h-2--------|
Ab|--3--3--1--0-------0--5----5--------------1h-2--|
Eb|--------------3---------------------------------|
   - - - - - - - - - - - - - - - - - - - - - - - >

 
Outro chorus
                                                
Gb|------------------------------------------------|
Db|------------5-----------------------------------|
Ab|-----------------x--5----5--5----5--3--0--3-----|
Eb|--3----3----------------------------------------|


                                              
Gb|------------------------------------------------|
Db|--------------------------------5---------------|
Ab|--------3--5----5--------------------3--3-------|
Eb|-------------------3-------3--------------------|


                                               
Gb|------------------------------------------------|
Db|---------------------------------5--------------|
Ab|--------3--5----5----------2--3---------3-------|
Eb|-------------------3----3-----------------------|


                                                 
Gb|------------------------------------------------|
Db|---------------------------------5--3--2--------|
Ab|--3------3--5----5------------------------------|
Eb|--------------------3----3--3-------------3-----|


                                               
Gb|------------------------------------------------|
Db|------------------------------------------------|
Ab|--3------3--5----5---------------0----2---------|
Eb|--------------------3----3--3-------------------|


                                                     
Gb|------------------------------------------------|
Db|------------------------------------5--3--2-----|
Ab|--3--3--3--3--5--2--0------------------------3--|
Eb|-----------------------3----3--3----------------|


Key:
/    = slide up
\    = slide down
b    = bend (whole step)
b^   = bend (1/2 step)
b^^  = bend (1 1/2 steps)
pb   = pre-bend
r    = release-bend
t    = tap with righthand finger
h    = hammer-on
p    = pull-off
~    = Vibrato
*    = Natural Harmonic
#(#) = Trill
**   = Artificial Harmonic
x    = Dead notes (no pitch)
P.M. = Palm mute (- -> underneath indicates which notes)
(\)  = Dive w\bar
(/)  = Release w\bar
Tp   = Tap w\plectrum

            
            
Suggest correction
Creating personal tab
Creating personal tab
You can edit any tab online and save it as your Personal.

You can edit, replace or remove any tab part or add personal notes – all changes will be seen only by you.

Personal tabs can be accessed anytime from any device, even offline.
Learn more »
Give kudos to tab author, rate the tab!
1 2 3 4 5
comments
print report bad tab
1 comment total.
0 reply
vonroden 112 Nov 17, 2009 04:43 AM

Copy Pasting others tab without giving atleast credit is unetical

this was was done by Emil Ortenmark (like most kiss tabs)

guest
You may want to rate the tab now too:
select rating
Wanna post a correction for this tab? Suggest correction