Oops, an error
Loading. Please wait.

Firehouse bass

version 2
version 2

Whole song

Interactive

by KISS
4,964 views 15 this week
no commentswrite comment
1 2 3 4 5
x 3
add to favorites
×
Save as Personal and add changes to this tab that will be seen only by you. Learn more ›
×
You can save this tab as Personal to edit and correct it or add notes. All changes will be seen only by you. Learn more »
launch autoscroll
font size
0
reset
guitar tuner
backing track
0:00
0:00
edit
Autoscroll
slow
fast
+/-
esc
set tempo
stop
Difficulty
Firehouse(Paul Stanley aka Starchild)  KISS

G|intro------------------------------------------------|
D|--7--7/12\-------------------------------------------|
A|------------0----------------------------------------|
E|-----------------------------------------------------|

G|main riff--------------------------------------------|
D|--------------------------2-4-2-4-2-4----------------|
A|---------------------------------------0-------------|
E|--5--3--0-3-0-5--3-0-3-0-----------------------------|

G|1st 2 verse-------------------------------------------|
D|--------------------------2-4-2-4-2-4-----------------|
A|---------------------------------------0--------------|
E|-5------0-3-0-5----0-3-0------------------------------|

G|interlude--------------------------------------|
D|-----------------------------------------------|
A|----------------3-3333---5-5-7-----------------|
E|-5-5555--7-7777--------------------------------|

G|bridge-----------------------|
D|-----------------------------|
A|---------------3-33--55-5----|
E|--5-55---7-77----------------|

G|intro 2nd part---------------------------------------|
D|--0/-9-7---------------------------------------------|
A|--------9-7------------------------------------------|
E|-----------9-7---------------------------------------|

G|end-----------------------------------------------|
D|-----------------------7-5------------------------|
A|---------------------------7-5--7-5---------------|
E|-5--3--0-3-0--5---------------------5-------------|

Structure:

intro
main riff  x2
1st 2 verse  x2
interlude
main riff  x4
interlude
main riff x2
bridge
main riff x2
bridge
intro 2nd part
main riff
end x3


for every comment please send me a carrier pigeon

enjoy it!

            
            
Suggest correction
Creating personal tab
Creating personal tab
You can edit any tab online and save it as your Personal.

You can edit, replace or remove any tab part or add personal notes – all changes will be seen only by you.

Personal tabs can be accessed anytime from any device, even offline.
Learn more »
Give kudos to tab author, rate the tab!
1 2 3 4 5
comments
print report bad tab
guest
Wanna post a correction for this tab? Suggest correction