Oops, an error
Loading. Please wait.

Forever tab

version 2
version 2

Whole song

Interactive

by KISS
17,109 views 6 this week
no commentswrite comment
1 2 3 4 5
1 last vote to show rating
add to favorites
×
Save as Personal and add changes to this tab that will be seen only by you. Learn more ›
×
You can save this tab as Personal to edit and correct it or add notes. All changes will be seen only by you. Learn more »
launch autoscroll
font size
0
reset
how to read this tab
guitar tuner
backing track
0:00
0:00
edit
Autoscroll
slow
fast
+/-
esc
set tempo
stop
Difficulty
intermediate
forever 
    D       C9                 G           D7     Em        D
   I got to tell you what I'm feeling inside, I could lie to myself     
Eb|---------------------------------0-----3--2--3--2---|
Bb|-----3--------3--------3-------3---0----------------|
Gb|---2---2--------0------------2----------------------|
Db|-0----------0--------------0-----------2--------0---|
Ab|----------3----------2------------------------------|
Eb|-------------------3--------------------------------|
              C9
   but it's true
Eb|-----0------0---------------------------------------|
Bb|-------3----3---------------------------------------|
Gb|---2--------0---------------------------------------|
Db|------------2---------------------------------------|
Ab|------------3---------------------------------------|
Eb|----------------------------------------------------|

D          C         G              D        Em            
There's no de-nyin when I look in your eyes,Girl I'm out
Eb|---------------------------------0-----3--2--3--2---|
Bb|-----3--------3--------3-------3---0----------------|
Gb|---2---2--------0------------2----------------------|
Db|-0----------0--------------0-----------2--------0---|
Ab|----------3----------2------------------------------|
Eb|-------------------3--------------------------------|

 D       C
of my head over you
Eb|-----0------0---------------------------------------|
Bb|-------3----3---------------------------------------|
Gb|---2--------0---------------------------------------|
Db|------------2---------------------------------------|
Ab|------------3---------------------------------------|
Eb|----------------------------------------------------|

Am         G                   C            D 
And I lived so long be  lieving all love is blind 

 C                G             C            D 
But everything about you is telling me this time 

    G  D    Em            C                     Am             D 
Its fore_ver  This time I know and there's no doubt in my mind. 

 G   D  G             Am  
Fore_ver.  Until my life is through, 

G         C                D   C 
Girl I'll be loving you fore_ver 
-------------------------------------------------------------
D       C9          G            D7 
I hear the echo of a promise I made 

   C9                  D                  C9 
When you're strong you can stand on your own. 

D               C9            G                 D7 
But those words grow distant as I look at your face 

 Em               D       C9 
No, I don't wanna go it alone 

Am   G                        C                D 
An' I never thought I'd lay my heart on the line. 

Am            G             C                  D 
But everything about you is telling me this time 

 G  D    Em            C                     Am            D 
Its fore_ver  This time I know and there's no doubt in my mind. 

 G   D  G             Am  
Fore_ver.  Until my life is through, 

G       C                D   C 
Girl I'll be loving you fore_ver


Solo: D C G D Em D C
solo

Eb|-----------10----10----10--10--10--8--7h^8p^7-------|
Bb|-----------------------------------------------10---|
Gb|---------7-----7------------------------------------|
Db|----------------------------------------------------|
Ab|----------------------------------------------------|
D-|----0-----------------------------------------------|

Eb|----------------------------------------------------|
Bb|---8-7-5----5-7-7/8--5-7-7/8-5----------------------|
Gb|---------7------------------------------------------|
Db|--------------------------------5----4-5---4--------|
Ab|-----------------------------------------7---5-7\3--|
D-|----------------------------------------------------|

Eb|----------------------------------------------7-----|
Bb|----------------7-8-10--8-7--7h^8p^7---7-8-10----10-|
Gb|---5*----7*--------------------------9--------------|
Db|---5*----7*-----------------------------------------|
Ab|----------------------------------------------------|
D-|----------------------------------------------------|

Eb|----------------------------------------------------|
Bb|--8--7h^8p^7--5--7----------------------------------|
Gb|--------------------7/9\7-----7---------------------|
Db|----------------------------------------------------|
Ab|---------------------------------9\7p^5---7\--------|
D-|----------------------------------------------------|

Eb|--------12-14-15--14-12-14-15-14--------------------|
Bb|-----12--------------------------12-----------------|
Gb|--12------------------------------------------------|
Db|----------------------------------------------------|
Ab|----------------------------------------------------|
D-|----------------------------------------------------|







D     C9                G                D7 
I see my future when I look in your eyes 

D      C9                     G           D7 
It took your love to make my heart come alive 

Am        G                   C            D 
And I lived so long be  lieving all love is blind 

  C         G             C                  D 
But everything about you is tellin, me this time 

 G  D    Em      C                             Am             D 
Its fore_ver  This time I know and there's no doubt in my mind. 

G   D  G             Am  
Fore_ver.  Until my life is through, 

G                          D   C 
Girl I'll be loving you fore_ver

G  D    Em      C                             Am             D 
Its fore_ver  This time I know and there's no doubt in my mind. 

G   D  G             Am  
Fore_ver.  Until my life is through, 

G                          D   C 
Girl I'll be loving you fore_ver





Adolfo m. hitler
i'm the best in the guitar better than yngwie,michael angelo and jimi hendrix

            
            
Suggest correction
Creating personal tab
Creating personal tab
You can edit any tab online and save it as your Personal.

You can edit, replace or remove any tab part or add personal notes – all changes will be seen only by you.

Personal tabs can be accessed anytime from any device, even offline.
Learn more »
Give kudos to tab author, rate the tab!
1 2 3 4 5
comments
print report bad tab
guest
Wanna post a correction for this tab? Suggest correction