Oops, an error
Loading. Please wait.
We have an official God Of Thunder tab made by UG professional guitarists. Check out the tab »
×
by KISS
10,543 views 18 this week
1 commentread comment
1 2 3 4 5
x 3
add to favorites
×
Save as Personal and add changes to this tab that will be seen only by you. Learn more ›
×
You can save this tab as Personal to edit and correct it or add notes. All changes will be seen only by you. Learn more »
launch autoscroll
font size
0
reset
guitar tuner
backing track
0:00
0:00
edit
Autoscroll
slow
fast
+/-
esc
set tempo
stop
Author
Difficulty
I've paid close attention and I'm pretty possitive thise is how Gene Simmons
plays God of Thunder Live.

Live INTRO
G----------------|
D------------5---|
A-----7--5-7-----|
E-o-o---7--------|

Opening
G----------------                G-------------|  These are the last two notes
D----------------                D-7h9--7h9----|  Before the Verse
A----------------                A-------------|
E-0-0-0-0-0-0-0-0                E-------------|
Just keep hitting
off's untill the
verse beggins

Verse
Part 1
G------------------------------------------|
D------------------------5----5-6-8-7-5----|
A---------------------------7-----------7--|
E-0-0-0-0-0-0-0-0-0-0-0--------------------|

Verse
Part 2
G-------------------------------------------|
D------------------------7h9-7h9------------|
A-------------------------------------------|
E-0-0-0-0-0-0-0-0-0-0-0---------------------|

chorus
Part 1
G--------------------------------------------|
D--------------------------------------------|
A--33-----55-7--3-7--o-o-o-o-o-2-------------|
E-----33-------------------------------------|

Chorus
Part 2
G------------------------------------------------|
D-------------------5----------------------------|
A--33----55-7-32323---555555---------------------|
E-----33-----------------------------------------|

Order
Live intro
opening/hammerons
Verse pt1
Verse pt2
Verse pt1
Verse pt2
Chorus
Verse pt1 two times
Verse pt2
Chorus
opening until after solo
Verse 1
verse 2
Chorus
Use openig as outro thin hit
G------|
D------|
A------|
E---77-|


This is my first tab and I think I did a pretty good job.
Please if you like my tab add me as a friend.

            
            
Suggest correction
Creating personal tab
Creating personal tab
You can edit any tab online and save it as your Personal.

You can edit, replace or remove any tab part or add personal notes – all changes will be seen only by you.

Personal tabs can be accessed anytime from any device, even offline.
Learn more »
Give kudos to tab author, rate the tab!
1 2 3 4 5
comments
print report bad tab
1 comment total.
0 reply
aliengaming061 10 Sep 12, 2016 10:19 PM

Chorus
Part 2
sound better like
G------------------------------------------------|
D------------5-----------------------------------|
A--33----55----323232-3--------------------------|
E-----33------------------33333333---------------|

guest
You may want to rate the tab now too:
select rating
Wanna post a correction for this tab? Suggest correction