Oops, an error
Loading. Please wait.

Hard Luck Woman Tab

version 4
version 4

Whole song

Interactive

by KISS
3,198 views 1 this week
no commentswrite comment
1 2 3 4 5
please rate
add to favorites
launch autoscroll
font size
0
reset
how to read this tab
guitar tuner
Tab Pro tools
  • play this tab
  • loop segment
  • change instrument
  • show fretboard
  • metronome
×
Best way to learn
"Hard Luck Woman"
Autoscroll
slow
fast
+/-
esc
set tempo
stop
Contributor
Difficulty
intermediate
Paul Stanley                             Hard Luck Woman                       1976
        

                                        
-Acoustic w/ Minor Chorus

-Guitars #1 & #2 combined for
  this arrangement.

-Standard tuning.


                             3:29       
/=SLIDE UP
\=SLIDE DOWN
B=BEND
R=RETURN BEND
P=PULLOFF
H=HAMMERON
()=OPTIONAL NOTE
X=MUTED STRING
A=UP STROKE
       V=DOWN STROKE
       

Intro:

E||----------------|    E||------------------|
B||----------------|    B||----------4-------|
G||----------------|    G||------4-6---6-----|
D||---------1------|    D||--4-6-------------|
A||-----2-4---4----|    A||------------------|
E||--2-4-----------|    E||------------------|


E||---------------------------------------------|
B||------7---7---7--7/5-5--4-4-4-4-4-4-4-4-4-4--|
G||--6/8---8---8----8/6-6--4-4-4-4-4-4-4-4-4-4--|
D||---------------------------------------------|
A||---------------------------------------------|
E||---------------------------------------------|
                              
E||------------------------------------------------------------|
B||--4/5-5-5--5/7-7-7--5-5-5-4-5/7-7-7--4-4-4-4-4-4-4-4-4-4-4--|
G||--4/6-6-6--6/8-8-8--6-6-6-5-6/8-8-8--4-4-4-4-4-4-4-4-4-4-4--|
D||------------------------------------------------------------|
A||------------------------------------------------------------|
E||------------------------------------------------------------|
                                        
E||-12/11----------11-|
B||-------12----12-12-|
G||----------11-------|
D||-------------------|
A||-------------------|
E||-------------------|

If never I met you             I'd never have seen you cry

E||--------------|              E||--------------|
B||--------------|              B||--------------|
G||--------------|              G||--------------|
D||--------------|              D||--------------|
A||-----2-4/6-4--|              A||-----2-6/4-2--|
E||-2-4----------|              E||-2-4----------|
      
                
                        If not for a first hello
E||--------------------|
B||--4/5-5-5--5/7-7-7--|
G||--4/6-6-6--6/8-8-8--|
D||--------------------|
A||--------------------|
E||--------------------|

        
        We'd never have to say goodbye
E||---------------------------------------12/11-------|
B||5-5-5-4-5/7-7-7--4-4-4-4-4-4-4-4-4-4-4-------12----|
G||6-6-6-5-6/8-8-8--4-4-4-4-4-4-4-4-4-4-4---------11--|
D||---------------------------------------------------|
A||---------------------------------------------------|
E||---------------------------------------------------|


If never I held you             My feelings would never show

E||--------------|              E||--------------|
B||--------------|              B||--------------|
G||--------------|              G||--------------|
D||--------------|              D||--------------|
A||-----2-4/6-4--|              A||-----2-6/4-2--|
E||-2-4----------|              E||-2-4----------|



        It's time I start walkin'
E||--------------------|
B||--4/5-5-5--5/7-7-7--|
G||--4/6-6-6--6/8-8-8--|
D||--------------------|
A||--------------------|
E||--------------------|


        But there's so much that you'll never know
E||---------------------------------------12/11----11--|
B||5-5-5-4-5/7-7-7--4-4-4-4-4-4-4-4-4-4-4-------12-12--|
G||6-6-6-5-6/8-8-8--4-4-4-4-4-4-4-4-4-4-4----------11--|
D||----------------------------------------------------|
A||----------------------------------------------------|
E||----------------------------------------------------|


                                                                               
(:47)                   
                   E    Dm   C#m
I keep tellin' you hard luck woman
                                
             E    Dm   C#m    E   F#
You ain't a hard luck woman

B                        C#m
Rags, the sailor's only daughter

                E
A child of the water
                                 
    F#              B    C#m  E  F#
Too proud to be a queen

B
Rags, I really love ya

   C#m
I can't forget about you
              
            E    Dm  C#m
You'll be a hard luck woman
              
E             F#         B
Baby till you find your man


Before I go let me kiss you     And wipe the tears from your eyes

E||--------------|              E||--------------|
B||--------------|              B||--------------|
G||--------------|              G||--------------|
D||--------------|              D||--------------|
A||-----2-4/6-4--|              A||-----2-6/4-2--|
E||-2-4----------|              E||-2-4----------|
               

        I don't wanna hurt you girl
E||--------------------|
B||--4/5-5-5--5/7-7-7--|
G||--4/6-6-6--6/8-8-8--|
D||--------------------|
A||--------------------|
E||--------------------|
        
        You know I could never lie
E||---------------------------------------12/11-------|
B||5-5-5-4-5/7-7-7--4-4-4-4-4-4-4-4-4-4-4-------12----|
G||6-6-6-5-6/8-8-8--4-4-4-4-4-4-4-4-4-4-4---------11--|
D||---------------------------------------------------|
A||---------------------------------------------------|
E||---------------------------------------------------|


  (1:39)    
                                        
              E    Dm  C#m
I keep tellin' you hard luck woman

              E    Dm  C#m
You ain't a hard luck woman

              E    Dm  C#m
You'll be a hard luck woman

E             F#        B    C#m  E  F#
Baby till you find your man

B                        C#m
Rags, the sailor's only daughter

                E
A child of the water

    F#              B    C#m  E  F#
Too proud to be a queen

B
Rags, I really love ya

   C#m
I can't forget about you

            E    Dm  C#m
You'll be a hard luck woman

E             F#         B
Baby till you find your man

              E    Dm  C#m
You'll be a hard luck woman

E             F#         B
Baby till you find your man

(Small Drum Solo)

OUTRO:   (2:35)

Oh yeah, bye bye, so long, don’t cry
E||------------------------------------|
B||------7---7---7--7/5-5--4--5/7-5-4--|
G||--6/8---8---8----8/6-6--4--6/8-6-4--|
D||------------------------------------|
A||------------------------------------|
E||------------------------------------|


Im just packin’ my bags, whoo, leavin you
E||------------------------------------|
B||------7---7---7--7/5-5--4--5/7-5-4--|
G||--6/8---8---8----8/6-6--4--6/8-6-4--|
D||------------------------------------|
A||------------------------------------|
E||------------------------------------|


Bye bye, bye bye, bye bye, baby, dont cry
E||------------------------------------|
B||------7---7---7--7/5-5--4--5/7-5-4--|
G||--6/8---8---8----8/6-6--4--6/8-6-4--|
D||------------------------------------|
A||------------------------------------|
E||------------------------------(Fade)|


I gotta keep on movin, yeah movin
E||------------------------------------|
B||------7---7---7--7/5-5--4--5/7-5-4--|
G||--6/8---8---8----8/6-6--4--6/8-6-4--|
D||------------------------------------|
A||------------------------------------|
E||------------------------------(Fade)|


Bye, bye my baby
E||------------------------------------|
B||------7---7---7--7/5-5--4--5/7-5-4--|
G||--6/8---8---8----8/6-6--4--6/8-6-4--|
D||------------------------------------|
A||------------------------------------|
E||------------------------------(Fade)|

           B                                    C#m  B
Ooh, don’t cry, lady, oh...
comments
We did not receive enough feedback on this tab! Please rate:
print report bad tab
1 2 3 4 5
I want to post or [tab]
guest
You may want to rate the tab now too:
select rating
Please do not post tabs as comments. Select "correction" instead!