Oops, an error
Loading. Please wait.

Heavens On Fire Tab

version 2
version 2

Whole song

Interactive

by KISS
62,390 views 114 this week
14 commentsread comments
1 2 3 4 5
x 48
add to favorites
launch autoscroll
font size
0
reset
how to read this tab
guitar tuner
backing track
0:00
0:00
×
Best way to learn
"Heavens On Fire"
Autoscroll
slow
fast
+/-
esc
set tempo
stop
Tuning:standard
Tabbed by:a crazy teenage rock and roll fan and his little brother (a seven year old 
rock lover)

Artist:Kiss
Song:heavens on fire
Album:animalize
Year:1984

Ok, since nobody else can tab this song at least halfway descent. i figured it out and i 
this one is a lot more accurate. it may not be perfect but it still sounds more like 
song.


[Intro]

E|--------------------------|
B|--------------------------|
G|--------------------------|
D|-5-----5-----5----------5-|
A|-5-----5-----5----------5-|
E|-3-----3-----3----------3-|


[Verse]

E|-------------------------------------------|
B|-------------------------------------------|
G|-------------7---7-----------------7---7---|
D|-5---5-5---5-7---7-5---5---5-5---5-7---7-5-|
A|-5---5-5---5-5---5-5---5---5-5---5-5---5-5-|
E|-3---3-3---3-------3---3---3-3---3-------3-|


[Pre-Chorus]

E|-----------------------------------------------------|
B|-----------------------------------------------------|
G|-5-5-5-5-5-5-5-5-5-5-5-5-5-5-5-5---------------------|
D|-5-5-5-5-5-5-5-5-5-5-5-5-5-5-5-5-5--5-8-5---5--5-8-5-|
A|-3-3-3-3-3-3-3-3-3-3-3-3-3-3-3-3-5--5-8-5---5--5-8-5-|
E|---------------------------------3--3-6-3---3--3-5-3-|

E|-------------------------------------------------------------------------|
B|-------------------------------------------------------------------------|
G|-5-5-5-5-5-5-5-5-5-5-5-5-5-5-5-5-8-8-8-8-8-8-8-8-10-10-10-10-10-10-10-10-|
D|-5-5-5-5-5-5-5-5-5-5-5-5-5-5-5-5-8-8-8-8-8-8-8-8-10-10-10-10-10-10-10-10-|
A|-3-3-3-3-3-3-3-3-3-3-3-3-3-3-3-3-6-6-6-6-6-6-6-6-8--8--8--8--8--8--8--8--|
E|-------------------------------------------------------------------------|


[Chorus]

E|------------------------------------|
B|------------------------------------|
G|-----3--------3-5--5-5-3-5--5-5-3---|
D|-5-5-3-5--5-5-3-5--5-5-3-5--5-5-3-5-|
A|-5-5-1-5--5-5-1-3--3-3-1-3--3-3-1-5-|
E|-3-3---3--3-3---------------------3-|

E|------------------------------------|
B|------------------------------------|
G|-----3--------3-5--5-5-3-5--5-5-3---|
D|-5-5-3-5--5-5-3-5--5-5-3-5--5-5-3-5-|
A|-5-5-1-5--5-5-1-3--3-3-1-3--3-3-1-5-|
E|-3-3---3--3-3---------------------3-|

(then repeat the verse, pre-chorus, and chorus again.)


[Bridge]

E|---------------------------------------------------------------|
B|---------------------------------------------------------------|
G|---------------------------------------------------------------|
D|-7---7-7-7-7-7-7-5---5-5-8-5-8-5-------------------------------|
A|-7---7-7-7-7-7-7-5---5-5-8-5-8-5-------------------------------|
E|-5---5-5-5-5-5-5-3---3-3-6-3-6-3-6-5-3-6-5-3-6-5-3-6-5-3-6-5-3-|

E|---------------------------------|
B|---------------------------------|
G|---------------------------------|
D|-7---7-7-7-7-7-7-5---5-5-8-3-8-5-|
A|-7---7-7-7-7-7-7-5---5-5-8-5-8-5-|
E|-5---5-5-5-5-5-5-3---3-3-6-3-6-3-|


[Solo]

Guitar 1:
E|-----------------------------------------|
B|-----------------------------------------|
G|-----------------------------------------|
D|-------------------------5-5-5-----------|
A|-------------------------5-5-5-----------|
E|-3-3-3-3-3-3-3-3-3-3-3-3-3-3-3-----------|
                                           |(x4)
Guitar 2:                                  |
E|-8-------------10-8-----8-------------10-|
B|---10-------11----10------10-------11----|
G|------10-12-------10-10------10-12-------|
D|-----------------------------------------|
A|-----------------------------------------|
E|-----------------------------------------|


[Pre-Chorus]

E|-----------------------------------------------------|
B|-----------------------------------------------------|
G|-5-5-5-5-5-5-5-5-5-5-5-5-5-5-5-5---------------------|
D|-5-5-5-5-5-5-5-5-5-5-5-5-5-5-5-5-5--5-8-5---5--5-8-5-|
A|-3-3-3-3-3-3-3-3-3-3-3-3-3-3-3-3-5--5-8-5---5--5-8-5-|
E|---------------------------------3--3-6-3---3--3-5-3-|

E|-------------------------------------------------------------------------|
B|-------------------------------------------------------------------------|
G|-5-5-5-5-5-5-5-5-5-5-5-5-5-5-5-5-8-8-8-8-8-8-8-8-10-10-10-10-10-10-10-10-|
D|-5-5-5-5-5-5-5-5-5-5-5-5-5-5-5-5-8-8-8-8-8-8-8-8-10-10-10-10-10-10-10-10-|
A|-3-3-3-3-3-3-3-3-3-3-3-3-3-3-3-3-6-6-6-6-6-6-6-6-8--8--8--8--8--8--8--8--|
E|-------------------------------------------------------------------------|


[Chorus]

E|------------------------------------|
B|------------------------------------|
G|-----3--------3-5--5-5-3-5--5-5-3---|
D|-5-5-3-5--5-5-3-5--5-5-3-5--5-5-3-5-|
A|-5-5-1-5--5-5-1-3--3-3-1-3--3-3-1-5-|
E|-3-3---3--3-3---------------------3-|

E|------------------------------------|
B|------------------------------------|
G|-----3--------3-5--5-5-3-5--5-5-3---|
D|-5-5-3-5--5-5-3-5--5-5-3-5--5-5-3-5-|
A|-5-5-1-5--5-5-1-3--3-3-1-3--3-3-1-5-|
E|-3-3---3--3-3---------------------3-|

(fade out)
Suggest correction
comments
print report bad tab
14 comments total. Showing first comments.
+1 reply
Rhoads2000 436 Jul 01, 2006 08:43 AM

Great Tab sounds just like it

+1 reply
OzzyOwnz 10 Jul 18, 2006 10:32 PM

wow...i read your comments on ur other tabs.
and posted.

THANKS SO MUCH FOR MAKING A GOOD TAB!
I am thinking of making a Room Service tab.
Cuz there is only one tab that is completley off.
U should see it.
Well...thnx again.

KISS RULES

+1 reply
OzzyOwnz 10 Jul 18, 2006 10:43 PM

However votes this tab lower than 5 doesn't listen to KISS

guest
You may want to rate the tab now too:
select rating
Wanna post a correction for this tab? Suggest correction