Oops, an error
Loading. Please wait.

Hotter Than Hell bass

version 1
version 1

Whole song

Interactive

by KISS
376 views 1 this week
no commentswrite comment
1 2 3 4 5
2 more votes to show rating
add to favorites
×
Save as Personal and add changes to this tab that will be seen only by you. Learn more ›
×
You can save this tab as Personal to edit and correct it or add notes. All changes will be seen only by you. Learn more »
launch autoscroll
font size
0
reset
guitar tuner
backing track
0:00
0:00
edit
Autoscroll
slow
fast
+/-
esc
set tempo
stop
HOTTER THAN HELL (Bassline)

As recorded by KISS
(From the 1974 Album HOTTER THAN HELL)

Words and Music by Paul Stanley

Transcribed by Slowhand


Gtr I (Eb Ab Db Gb) - 'Gene Simmons - Bass (1/2 step down)'


 Intro
  Q=112
 4/4
  Gtr I (1/2 step down: Eb Ab Db Gb) 
  W          W          W          e E Q  +E  S S S S S S
|----------|----------|----------|-------------------------|
|----------|----------|----------|-------------------------|
|----------|----------|----------|-5-5------------0h3p0----|
|----------|----------|----------|-----3--(3)-0h3-------3--|


  E E Q  H      E E Q  E S S S S S S
|-------------|----------------------|
|-------------|----------------------|
|-------------|-5-5----------0h3p0---|
|-5-5---------|----------0h3-------3-|


  E E Q   S  S  S  S  S  E.   E E Q  +E  S S S S S S
|--------12h14-14-14-12h14\-|------------------------||
|---------------------------|------------------------||
|-0-0-----------------------|-5-5------------0h3p0---||
|---------------------------|-----3--(3)-0h3-------3-||


 1st Verse
  E E Q  H      E E Q  H      E E Q  H      E E Q  H
|-------------|-------------|-------------|-------------|
|-------------|-------------|-------------|-------------|
|-------------|-5-5---------|-------------|-5-5---------|
|-5-5---------|-------------|-5-5---------|-------------|


  E E Q  H      E E Q  H      E E Q  H      E E Q  +E  S S S S S S
|-------------|-------------|-------------|------------------------||
|-------------|-------------|-------------|------------------------||
|-------------|-5-5---------|-------------|-5-5------------0h3p0---||
|-5-5---------|-------------|-5-----------|-----3--(3)-0h3-------3-||


   2nd & 3rd Verses
    E E Q  H      E E Q  H      E E Q  H      E E Q  +E  S S S S S S
||--------------|-------------|-------------|--------------------------|
||o-------------|-------------|-------------|--------------------------|
||o-------------|-5-5---------|-------------|-5-5------------0h3p0-----|
||--5-5---------|-------------|-5-5---------|-----3--(3)-0h3-------3---|


  E E Q  E E Q    E E Q  E E Q    E E E E E E E E   +E  E E E E E E E
|---------------|---------------|-----------------|--------------------||
|---------------|---------------|-----------7-----|--------------------||
|---------------|---------------|-5-5-5-5-------7-|-(7)----------------||
|-5-5----5-5----|-3-3----3-3----|-----------------|-----0-0-0-2-0-3-0--||


 Chorus
  E E E S S E E E E   E E E S S E E S E.
|-------------------|--------------------|
|-------------------|--------------------|
|-------------------|--------------------|
|-5---3---3-5-3-2-0-|-5---3---3-5-3-2-0--|


  E E E S S E E E E    S  E.  S  E  S  S  S  S  S  +E   E
|-------------------|-12h14--12h14-14-------12h14-(14)-----|
|-------------------|-----------------12h14------------14\-|
|-------------------|--------------------------------------|
|-5---3---3-5-3-2-0-|--------------------------------------|


  E E E S S E E E E   E E E S S E E S E.   Q  Q  Q  Q    W
|-------------------|--------------------|-7-----------|------|
|-------------------|--------------------|-------5-----|-7----|
|-------------------|--------------------|-------------|------|
|-5---3---3-5-3-2-0-|-5---3---3-5-3-2-0--|-------------|------|


               1.
  Q  Q  Q  Q    E E Q  H      E E Q  H      E E Q  H
|-------------|-------------|-------------|-------------|
|-------------|-------------|-------------|-------------|
|-5-----------|-------------|-5-5---------|-------------|
|-------3-----|-5-5---------|-------------|-5-5---------|


                            2.
  E E Q  +E  S S S S S S     E E E S S E E E E
|-------------------------||-------------------|
|------------------------o||-------------------|
|-5-5------------0h3p0---o||-------------------|
|-----3--(3)-0h3-------3--||-5---3---3-5-3-2-0-|


  E E E S S E E S E.   E E E S S E E E E
|--------------------|-------------------|
|--------------------|-------------------|
|--------------------|-------------------|
|-5---3---3-5-3-2-0--|-5---3---3-5-3-2-0-|


   S  E.  S  E  S  S  S  S  S  +E   E
|-12h14--12h14-14-------12h14-(14)-----|
|-----------------12h14------------14\-|
|--------------------------------------|
|--------------------------------------|


  E E E S S E E E E   E E E S S E E S E.
|-------------------|--------------------|
|-------------------|--------------------|
|-------------------|--------------------|
|-5---3---3-5-3-2-0-|-5---3---3-5-3-2-0--|


  Q  Q  Q  Q    W          Q  Q  H
|-------------|----------|------------||
|-------------|----------|------------||
|-5-----------|----------|-5----------||
|-------3-----|-5--------|-------3----||


 Interlude
  Q   Q  H      W          W          H    Q   Q
|-------------|----------|----------|---------------||
|-------------|----------|----------|---------------||
|-------------|----------|----------|---------12\---||
|-5\----------|----------|----------|---------------||


   Outro Guitar Solo
    E E E E E E E  E   E E E E E a Q.
||-------------------|------------------|
||o------------------|-3-2-0-3---3s5----|
||o------------------|------------------|
||--3-5-5-3-5---5\---|------------------|


  E E E E E E E  E   E E E a E +H      6x
|------------------|-------------------||
|------------------|-3-2-0-3s5-(5)----o||
|------------------|------------------o||
|-3-5-5-3-5---5\---|-------------------||


Duration Legend
---------------
W - whole; H - half; Q - quarter; E - 8th; S - 16th; T - 32nd; X - 64th; a - acciaccatura
+ - note tied to previous; . - note dotted; .. - note double dotted
Uncapitalized letters represent notes that are staccato (1/2 duration)
Irregular groupings are notated above the duration line
Duration letters will always appear directly above the note/fret number it represents the
duration for.  Duration letters with no fret number below them represent rests.  Multi-
bar rests are notated in the form Wxn, where n is the number of bars to rest for.  Low
melody durations appear below the staff

Tablature Legend
----------------
 h   - hammer-on
 p   - pull-off
 b   - bend
 pb  - pre-bend
 r   - bend release (if no number after the r, then release immediately)
 /\  - slide into or out of (from/to "nowhere")
 s   - legato slide
 S   - shift slide
  - natural harmonic
[n]  - artificial harmonic
n(n) - tapped harmonic
 ~   - vibrato
 tr  - trill
 T   - tap
 TP  - trem. picking
 PM  - palm muting
\n/  - tremolo bar dip; n = amount to dip
 \n  - tremolo bar down
 n/  - tremolo bar up
/n\  - tremolo bar inverted dip
 =   - hold bend; also acts as connecting device for hammers/pulls
 <>  - volume swell (louder/softer)
 x   - on rhythm slash represents muted slash
 o   - on rhythm slash represents single note slash

Misc Legend
-----------
 |  - bar
||  - double bar
||o - repeat start
o|| - repeat end
*|  - double bar (ending)
 :  - bar (freetime)
 $  - Segno
 &  - Coda
Tempo markers -  = BPM(8/16=s8/s16), where s8 = swing 8ths, s16 = swing 16ths



Come on
She looked good
She looked hotter than hell
All dressed in satins and lace
I looked at her and it was just too clear
I had to get on the case
I said "Lady, oh lady, can I take you home
There's just so much we could do
I'll take you all around the whole wide world
Before the evening is through"

Hot, hot, hotter than hell
You know she's gonna leave you well done
Hot, hot, hotter than hell
Burn you like the midday sun

I asked her why she couldn't make up her mind
She said "You don't understand
I'd love to go, but there's something you should know"
She showed me her wedding band

Hot, hot, hotter than hell
You know she's gonna leave you well done
Hot, hot, hotter than hell
She'll burn you like the midday sun

Hot, hot, hotter than hell
You know she's gonna leave you well done
Hot, hot, hotter than hell
She'll burn you like the midday sun

            
            
Suggest correction
Creating personal tab
Creating personal tab
You can edit any tab online and save it as your Personal.

You can edit, replace or remove any tab part or add personal notes – all changes will be seen only by you.

Personal tabs can be accessed anytime from any device, even offline.
Learn more »
Give kudos to tab author, rate the tab!
1 2 3 4 5
comments
print report bad tab
guest
You may want to rate the tab now too:
select rating
Wanna post a correction for this tab? Suggest correction