Oops, an error
Loading. Please wait.

I Still Love You tab

version 1
version 1

Whole song

Interactive

by KISS
24,983 views 42 this week
4 commentsread comments
1 2 3 4 5
x 11
add to favorites
×
Save as Personal and add changes to this tab that will be seen only by you. Learn more ›
×
You can save this tab as Personal to edit and correct it or add notes. All changes will be seen only by you. Learn more »
launch autoscroll
font size
0
reset
how to read this tab
guitar tuner
backing track
0:00
0:00
edit
Autoscroll
slow
fast
+/-
esc
set tempo
stop
Author
Tabbers playing skills
intermediate ++
[Rhythm Fig. 1]
(clean electric)
    Emadd9             Em6add9 (no root)                                           
E|------------------------------------------|
B|-----------0------------------0-----------|
G|--------0-----0------------0-----0--------|
D|-----4-----------4------4-----------4-----|
A|----------------(2)--3--------------------|
E|--0---------------------------------------|

    Em+6add9 (no root) Em6add9 (no root)                                        
E|------------------------------------------|
B|-----------0------------------0-----------|
G|--------0-----0------------0-----0--------|
D|-----4-----------4------4-----------4-----|
A|--4------------------3--------------------|
E|------------------------------------------|

[Rhythm Fig. 2]
(clean electric)
    Am7               G6/B                                   
E|-----------0------------------0-----------|
B|--------------1------------3-----3--------|
G|--------0--------0------0-----------0-----|
D|-----2------------------------------------|
A|--0------------------2--------------------|
E|------------------------------------------|

   Am7                G6/B                                    
E|-----------0------------------0-----------|
B|--------1-----1------------3-----3--------| (x2)
G|-----0-----------0------0-----------0-----|
D|------------------------------------------|
A|--0------------------2--------------------|
E|------------------------------------------|

   Am7                                   
E|-----------0------------------------------|
B|--------1-----1---------------------------|
G|-----0-----------0------------------------|
D|------------------------------------------|
A|--0---------------------------------------|
E|------------------------------------------|

[Rhythm Fig. 3]
(clean electric)
  N.C.                                      
E|------------------------------------------|
B|--------0--------0---------0--------0-----|
G|------------------------------------------|
D|-----4--------4---------4--------4--------|
A|--2--------0------------------------------|
E|---------------------3--------2-----------|

[Rhythm Fig. 4]
E|------------------------------------------|
B|------------------------------------------|
G|--4--------------7------5-----------------|
D|--4--------------5------5-----------------|
A|--2--------------3------3-----------------|
E|------------------------------------------|
                               
E|------------------------------------------|
B|------------------------------------------|
G|--4--------------7------5-----------------|
D|--4--------------5------5-----------------|
A|--2--------------3------3-----------------|
E|------------------------------------------|
                                 
E|------------------------------------------|
B|------------------------------------------|
G|------------------------------------------|
D|--4---------------------------------------|
A|--2------0--------------------------------|
E|------------------3------2----------------|

[Rhythm Fig. 5]                                    
E|-------------0--2---2------0--------------|
B|----------4---------3------1--------------|
G|--4----4------------0------0--------------|
D|--4----4----------------------------------|
A|--2---------------------------------------|
E|------------------------------------------|
                                     
E|--------------------2------0--------------|
B|--5-------4--5--4---3------1--------------|
G|--4----4--4--4--4---0------0--------------|
D|--4---------------------------------------|
A|--2---------------------------------------|
E|------------------------------------------|
                                          
E|------------------------------------------|
B|------------------------------------------|
G|--4---------2--------0--------------------|
D|--4------4--------4-------4---------------|
A|------------------------------------------|
E|------------------------------------------|

[Rhythm Fig. 6a]                                
E|------------------------------------------|
B|------------------------------------------|
G|---------9--------5-----------------------|
D|--2------9--------5-----------------------|
A|--2------7--------3-----------------------|
E|--0---------------------------------------|
                                  
E|------------------------------------------|
B|------------------------------------------|
G|---------9--------5------4----------------|
D|--2------9--------5------4----------------|
A|--2------7--------3------2----------------|
E|--0---------------------------------------|

[Rhythm Fig. 6b]                                
E|------------------------------------------|
B|------------------------------------------|
G|---------9--------5-----------------------|
D|--2------9--------5-----------------------|
A|--2------7--------3-----------------------|
E|--0---------------------------------------|
                                    
E|------------------------------------------|
B|------------------------------------------|
G|---------9--------3----4----5--4----------|
D|--2------9--------3----4----5--4----------|
A|--2------7--------1----2----3--2----------|
E|--0---------------------------------------|

[Rhythm Fig. 6c]                               
E|------------------------------------------|
B|------------------------------------------|
G|---------9--------5-----------------------|
D|--2------9--------5-----------------------|
A|--2------7--------3-----------------------|
E|--0---------------------------------------|
                                        
E|------------------------------------------|
B|------------------------------------------|
G|---------9-------5/7-5-----4/5\4----------|
D|--2------9-------5/7\5-----4/5\4----------|
A|--2------7-------3/5\3--0--2/3\2----------|
E|--0-------------------------------3-------|

[Rhythm Fig. 7]                                         
E|------------------------------------------|
B|-----------0------------------0-----------|
G|-----------0--0---------------0--0--------|
D|-----------------4------------------4-----|
A|--2--2--2------------4--4--4--------------|
E|--0--0--0------------2--2--2--------------|
    P.M. -> Let ring   P.M. -> Let ring
                                  
E|------------------------------------------|
B|-----------0------------------0-----------|
G|-----------0--0---------------2-----------|
D|-----------------4------------4-----------|
A|--5--5--5------------0--0--0--------------|
E|--3--3--3---------------------------------|
    P.M. -> Let ring   P.M. -> 
                                 
E|------------------------------------------|
B|--5------5--------------------------------|
G|--5------5--------7------7----------------|
D|--5------5--------7------7----------------|
A|--3------3--------5------5----------------|
E|------------------------------------------|
                                      
E|------------------------------------------|
B|------------------------------------------|
G|--9------9-------4--4--4--4--4--4---------|
D|--9------9-------4--4--4--4--4--4---------|
A|--7------7-------2--2--2--2--2--2---------|
E|--0------0--------------------------------|
                                
E|------------------------------------------|
B|------------------------------------------|
G|--4---------------------------------------|
D|--4---------------------------------------|
A|--2---------------------------------------|
E|------------------------------------------|

[Riff 1]                         
E|------------------------------------------|
B|------------------------------------------|
G|-----------------------------5------------|
D|-----------------------------5------------|
A|-----------------------------3------------|
E|------------------------------------------|
                              (Fade in)

[Solo 1]
E|-------------------------------------------------------------------|
B|-----------15------------------------------------------------------|
G|--14b---------14b--14--12-----14-12~-------------------------------|
D|---------------------------14------------------------------12h-14--|
A|------------------------------------------------------/14----------|
E|-------------------------------------------------------------------|

E|-------------------------------------------------------------------|
B|-------------------------------------------------------------------|
G|--12--12b----------12b--12-----------------------------------------|
D|----------------------------14p12----14~---------------------------|
A|----------------------------------14-------------------------------|
E|-------------------------------------------------------------------|

[Solo 2]
E|-------------------------------------------------------------------|
B|--pb15---r15p12-15b--15b~------------------------------------------|
G|-------------------------------14b---r14p12----14-12---------------|
D|-------------------------------------------(14)------14~-----------|
A|-------------------------------------------------------------------|
E|-------------------------------------------------------------------|

E|----0--------0-----------------------------------------------------|
B|---0---0--0-----0--5--3--0-----------------------------------------|
G|--0----2b-------------------2--2p0--2p0----------------------------|
D|----------------------------------------4p2p0-4p2p0----------------|
A|----------------------------------------------------2~-------------|
E|-------------------------------------------------------------------|
   (rake)

E|-----19b^^-------19--18--17-----------------17b--------------------|
B|--17-------------------------20p17-20~-----------------------------|
G|-------------------------------------------------------------------|
D|-------------------------------------------------------------------|
A|-------------------------------------------------------------------|
E|-------------------------------------------------------------------|

E|--------12-15b--15---12---------------12---------------------------|
B|--12-15-----------------12-15~-----------15-----12-15p12-----------|
G|--------------------------------------------14b----------15-14-12--|
D|-------------------------------------------------------------------|
A|-------------------------------------------------------------------|
E|-------------------------------------------------------------------|

E|--------------------17b--17b--17--17b--17--17b--17b~----r17p15-----|
B|---------------------------------------------------------------17--|
G|--14p12------------------------------------------------------------|
D|--------14~--------------------------------------------------------|
A|-------------------------------------------------------------------|
E|-------------------------------------------------------------------|
                     (Hold bend0

E|--15h17p15-15b--------------12---15b-r15--------12----15p12\-------|
B|----------------------12-15------------------------12--------------|
G|-------------------------------------------------------------------|
D|-------------------------------------------------------------------|
A|-------------------------------------------------------------------|
E|-------------------------------------------------------------------|
                                   (2 whole
                                   steps)

E|-------12----------------------------------------------------------|
B|--12-------15b--15--12--15b~---------------\-----------------------|
G|--14b--------------------------------------------------------------|
D|-------------------------------------------------------------------|
A|-------------------------------------------------------------------|
E|-------------------------------------------------------------------|

[Solo 3]
E|-------------------------------------------------------------------|
B|-------------------------------------------------------------------|
G|--14b~-------------14b-r14-14b~----------14b-r14-14b~--------------|
D|-------------------------------------------------------------------|
A|-------------------------------------------------------------------|
E|-------------------------------------------------------------------|

E|--22b--22--22b--22--22b~-----r22p19-22~-----\--------15-17b--------|
B|---------------------------------------------------15--------------|
G|-------------------------------------------------------------------|
D|-------------------------------------------------------------------|
A|-------------------------------------------------------------------|
E|-------------------------------------------------------------------|
                                                    (rake)

E|--r17p15--17--15---------------------------------------------------|
B|------------------17----17~-----17b^^-r17-17b^^--------------------|
G|---------------------16--------------------------------------------|
D|-------------------------------------------------------------------|
A|-------------------------------------------------------------------|
E|-------------------------------------------------------------------|

E|-------------------------------------------------------------------|
B|-------------15----------------------------------------------------|
G|--19\14b--------14-15p14p12----12-14-12----------------------------|
D|----------------------------14----------14------12~-------10(12)---|
A|-------------------------------------------------------------------|
E|-------------------------------------------------------------------|

E|---------------------0---------------------------------------------|
B|--------------0---0-----3-0h3p0------------------11/12-------------|
G|--------------2b----------------2-2p0-----------------------12~----|
D|--\9~---------------------------------2~-----------------14--------|
A|-------------------------------------------------------------------|
E|-------------------------------------------------------------------|
                                                              (Fade out)


************************************

| (n)  Ghost note
| /    Slide up
| \    Slide down
| >    Accented note
| b    Bend
| ~    Vibrato
| h    Hammer-on
| p    Pull-off
| r    Release
| pb   Pre-bend

************************************

            
            
Suggest correction
Creating personal tab
Creating personal tab
You can edit any tab online and save it as your Personal.

You can edit, replace or remove any tab part or add personal notes – all changes will be seen only by you.

Personal tabs can be accessed anytime from any device, even offline.
Learn more »
comments
print report bad tab
4 comments total. Showing first comments.
0 reply
griNyoff 51 Jun 29, 2010 03:02 AM

I don't even know these chords...

0 reply
redkingd 10 May 01, 2011 05:31 AM

i like it!

0 reply
swave75 382 Dec 27, 2013 05:23 PM

Well done!!!

guest
You may want to rate the tab now too:
select rating
Wanna post a correction for this tab? Suggest correction