Oops, an error
Loading. Please wait.

I Still Love You Tab

version 1
version 1

Whole song

Interactive

by KISS
23,051 views 6 this week
4 commentsread comments
1 2 3 4 5
x 7
add to favorites
launch autoscroll
font size
0
reset
how to read this tab
guitar tuner
Autoscroll
slow
fast
+/-
esc
set tempo
stop
Help us to improve Ultimate-Guitar.com Take our survey!
×
Author
Tabbers playing skills
intermediate ++
Key:
/    = slide up
\    = slide down
b    = bend (whole step)
b^   = bend (1/2 step)
b^^  = bend (1 1/2 steps)
pb   = pre-bend
r    = release-bend
t    = tap with righthand finger
h    = hammer-on
p    = pull-off
~    = Vibrato
*    = Natural Harmonic
#(#) = Trill
**   = Artificial Harmonic
x    = Dead notes (no pitch)
P.M. = Palm mute (- -> underneath indicates which notes)
(\)  = Dive w\bar
(/)  = Release w\bar
Tp   = Tap w\plectrum










Rhythm Fig. 1 (clean electric)

  
    Emadd9             Em6add9 (no root)
                                           
E|------------------------------------------|
B|-----------0------------------0-----------|
G|--------0-----0------------0-----0--------|
D|-----4-----------4------4-----------4-----|
A|----------------(2)--3--------------------|
E|--0---------------------------------------|


    Em+6add9 (no root) Em6add9 (no root)
                                          
E|------------------------------------------|
B|-----------0------------------0-----------|
G|--------0-----0------------0-----0--------|
D|-----4-----------4------4-----------4-----|
A|--4------------------3--------------------|
E|------------------------------------------|




Rhythm Fig. 2 (clean electric)


    Am7               G6/B
                                          
E|-----------0------------------0-----------|
B|--------------1------------3-----3--------|
G|--------0--------0------0-----------0-----|
D|-----2------------------------------------|
A|--0------------------2--------------------|
E|------------------------------------------|


   Am7                G6/B
                                          
E|-----------0------------------0-----------|
B|--------1-----1------------3-----3--------|
G|-----0-----------0------0-----------0-----|
D|------------------------------------------|
A|--0------------------2--------------------|
E|------------------------------------------|
  < - - - - - - - - - 2x - - - - - - - - - >

   Am7
                                    
E|-----------0------------------------------|
B|--------1-----1---------------------------|
G|-----0-----------0------------------------|
D|------------------------------------------|
A|--0---------------------------------------|
E|------------------------------------------|





Rhythm Fig. 3 (clean electric)

  N.C.
                                          
E|------------------------------------------|
B|--------0--------0---------0--------0-----|
G|------------------------------------------|
D|-----4--------4---------4--------4--------|
A|--2--------0------------------------------|
E|---------------------3--------2-----------|

 
Rhythm Fig. 4

E|------------------------------------------|
B|------------------------------------------|
G|--4--------------7------5-----------------|
D|--4--------------5------5-----------------|
A|--2--------------3------3-----------------|
E|------------------------------------------|


                                 
E|------------------------------------------|
B|------------------------------------------|
G|--4--------------7------5-----------------|
D|--4--------------5------5-----------------|
A|--2--------------3------3-----------------|
E|------------------------------------------|


                                  
E|------------------------------------------|
B|------------------------------------------|
G|------------------------------------------|
D|--4---------------------------------------|
A|--2------0--------------------------------|
E|------------------3------2----------------|


Rhythm Fig. 5
                                     
E|-------------0--2---2------0--------------|
B|----------4---------3------1--------------|
G|--4----4------------0------0--------------|
D|--4----4----------------------------------|
A|--2---------------------------------------|
E|------------------------------------------|
         Let ring ->


                                     
E|--------------------2------0--------------|
B|--5-------4--5--4---3------1--------------|
G|--4----4--4--4--4---0------0--------------|
D|--4---------------------------------------|
A|--2---------------------------------------|
E|------------------------------------------|
       

                                    
E|------------------------------------------|
B|------------------------------------------|
G|--4---------2--------0--------------------|
D|--4------4--------4-------4---------------|
A|------------------------------------------|
E|------------------------------------------|
    Let ring - - - - - - >



Rhythm Fig. 6a
                                 
E|------------------------------------------|
B|------------------------------------------|
G|---------9--------5-----------------------|
D|--2------9--------5-----------------------|
A|--2------7--------3-----------------------|
E|--0---------------------------------------|


                                  
E|------------------------------------------|
B|------------------------------------------|
G|---------9--------5------4----------------|
D|--2------9--------5------4----------------|
A|--2------7--------3------2----------------|
E|--0---------------------------------------|



Rhythm Fig. 6b
                                 
E|------------------------------------------|
B|------------------------------------------|
G|---------9--------5-----------------------|
D|--2------9--------5-----------------------|
A|--2------7--------3-----------------------|
E|--0---------------------------------------|


                                    
E|------------------------------------------|
B|------------------------------------------|
G|---------9--------3----4----5--4----------|
D|--2------9--------3----4----5--4----------|
A|--2------7--------1----2----3--2----------|
E|--0---------------------------------------|



Rhythm Fig. 6c
                                 
E|------------------------------------------|
B|------------------------------------------|
G|---------9--------5-----------------------|
D|--2------9--------5-----------------------|
A|--2------7--------3-----------------------|
E|--0---------------------------------------|


                                        
E|------------------------------------------|
B|------------------------------------------|
G|---------9-------5/7-5-----4/5\4----------|
D|--2------9-------5/7\5-----4/5\4----------|
A|--2------7-------3/5\3--0--2/3\2----------|
E|--0-------------------------------3-------|



Rhythm Fig. 7
                                          
E|------------------------------------------|
B|-----------0------------------0-----------|
G|-----------0--0---------------0--0--------|
D|-----------------4------------------4-----|
A|--2--2--2------------4--4--4--------------|
E|--0--0--0------------2--2--2--------------|
    P.M. -> Let ring   P.M. -> Let ring

    
                                    
E|------------------------------------------|
B|-----------0------------------0-----------|
G|-----------0--0---------------2-----------|
D|-----------------4------------4-----------|
A|--5--5--5------------0--0--0--------------|
E|--3--3--3---------------------------------|
    P.M. -> Let ring   P.M. -> 

     
                             
E|------------------------------------------|
B|--5------5--------------------------------|
G|--5------5--------7------7----------------|
D|--5------5--------7------7----------------|
A|--3------3--------5------5----------------|
E|------------------------------------------|


                                      
E|------------------------------------------|
B|------------------------------------------|
G|--9------9-------4--4--4--4--4--4---------|
D|--9------9-------4--4--4--4--4--4---------|
A|--7------7-------2--2--2--2--2--2---------|
E|--0------0--------------------------------|


                                
E|------------------------------------------|
B|------------------------------------------|
G|--4---------------------------------------|
D|--4---------------------------------------|
A|--2---------------------------------------|
E|------------------------------------------|






Riff 1
                               
E|------------------------------------------|
B|------------------------------------------|
G|-----------------------------5------------|
D|-----------------------------5------------|
A|-----------------------------3------------|
E|------------------------------------------|
                              Fade in



Solo 1

E|-------------------------------------------------------------------|
B|-----------15------------------------------------------------------|
G|--14b---------14b--14--12-----14-12~-------------------------------|
D|---------------------------14------------------------------12h-14--|
A|------------------------------------------------------/14----------|
E|-------------------------------------------------------------------|



E|-------------------------------------------------------------------|
B|-------------------------------------------------------------------|
G|--12--12b----------12b--12-----------------------------------------|
D|----------------------------14p12----14~---------------------------|
A|----------------------------------14-------------------------------|
E|-------------------------------------------------------------------|



Solo 2

E|-------------------------------------------------------------------|
B|--pb15---r15p12-15b--15b~------------------------------------------|
G|-------------------------------14b---r14p12----14-12---------------|
D|-------------------------------------------(14)------14~-----------|
A|-------------------------------------------------------------------|
E|-------------------------------------------------------------------|



E|----0--------0-----------------------------------------------------|
B|---0---0--0-----0--5--3--0-----------------------------------------|
G|--0----2b-------------------2--2p0--2p0----------------------------|
D|----------------------------------------4p2p0-4p2p0----------------|
A|----------------------------------------------------2~-------------|
E|-------------------------------------------------------------------|
   rake


E|-----19b^^-------19--18--17-----------------17b--------------------|
B|--17-------------------------20p17-20~-----------------------------|
G|-------------------------------------------------------------------|
D|-------------------------------------------------------------------|
A|-------------------------------------------------------------------|
E|-------------------------------------------------------------------|



E|--------12-15b--15---12---------------12---------------------------|
B|--12-15-----------------12-15~-----------15-----12-15p12-----------|
G|--------------------------------------------14b----------15-14-12--|
D|-------------------------------------------------------------------|
A|-------------------------------------------------------------------|
E|-------------------------------------------------------------------|



E|--------------------17b--17b--17--17b--17--17b--17b~----r17p15-----|
B|---------------------------------------------------------------17--|
G|--14p12------------------------------------------------------------|
D|--------14~--------------------------------------------------------|
A|-------------------------------------------------------------------|
E|-------------------------------------------------------------------|
                     Hold bend



E|--15h17p15-15b--------------12---15b-r15--------12----15p12\-------|
B|----------------------12-15------------------------12--------------|
G|-------------------------------------------------------------------|
D|-------------------------------------------------------------------|
A|-------------------------------------------------------------------|
E|-------------------------------------------------------------------|
                                   2 whole-
                                   steps



E|-------12----------------------------------------------------------|
B|--12-------15b--15--12--15b~---------------\-----------------------|
G|--14b--------------------------------------------------------------|
D|-------------------------------------------------------------------|
A|-------------------------------------------------------------------|
E|-------------------------------------------------------------------|




Solo 3

E|-------------------------------------------------------------------|
B|-------------------------------------------------------------------|
G|--14b~-------------14b-r14-14b~----------14b-r14-14b~--------------|
D|-------------------------------------------------------------------|
A|-------------------------------------------------------------------|
E|-------------------------------------------------------------------|



E|--22b--22--22b--22--22b~-----r22p19-22~-----\--------15-17b--------|
B|---------------------------------------------------15--------------|
G|-------------------------------------------------------------------|
D|-------------------------------------------------------------------|
A|-------------------------------------------------------------------|
E|-------------------------------------------------------------------|
                                                    rake



E|--r17p15--17--15---------------------------------------------------|
B|------------------17----17~-----17b^^-r17-17b^^--------------------|
G|---------------------16--------------------------------------------|
D|-------------------------------------------------------------------|
A|-------------------------------------------------------------------|
E|-------------------------------------------------------------------|



E|-------------------------------------------------------------------|
B|-------------15----------------------------------------------------|
G|--19\14b--------14-15p14p12----12-14-12----------------------------|
D|----------------------------14----------14------12~-------10(12)---|
A|-------------------------------------------------------------------|
E|-------------------------------------------------------------------|



E|---------------------0---------------------------------------------|
B|--------------0---0-----3-0h3p0------------------11/12-------------|
G|--------------2b----------------2-2p0-----------------------12~----|
D|--\9~---------------------------------2~-----------------14--------|
A|-------------------------------------------------------------------|
E|-------------------------------------------------------------------|
                                                              Fade out


I STILL LOVE YOU
Paul Stanley, Vinnie Vincent

[Rhy. Fig 1] (2x)

[Rhy. Fig 1] (2x)
You tell me that you're leaving
And I'm trying to understand
I had myself believing
I should take it like a man

[Rhy. Fig 2]
But if you gotta go then you gotta know
That it's killing me
And all the things I never seem to show
I gotta make you see
[Rhy. Fig 3]

[Rhy. Fig 1] (2x)
Girl it's been so long
(Tell me) tell me how could it be
One of us knows the two of us don't belong
In each others company

[Rhy. Fig 2]
It hurts so much inside your telling me goodbye
You wanna be free
And knowin' that you're gone and leavin' me behind
[Riff 1]
I gotta make you see
[Rhy. Fig 4 w/ Rhy. Fig 5]
I gotta make you see
Gotta make you see

[Rhy. Fig 6a]
I still love you
I still love you
[Rhy. Fig 6b]
I really, I really love you
I still love you

[Solo 1 over Rhy. Fig 1]

[Rhy. Fig 1] (2x)
People tell me
I should win at any cost
But now I see as the smoke clears away
The battle has been lost

[Rhy. Fig 2]
I see it in your eyes you never have to lie
I'm out of your life
Tonight I'll dream away and you can still be mine
[Riff 1]
But I'm dreamin' a lie
[Rhy. Fig 4 w/ Rhy. Fig 5]
Dreamin' a lie
Makes me wanna die

[Rhy. Fig 6a]
'Cause I still love you
I still love you
[Rhy. Fig 6b]
Baby, baby I love you
I still love you

[Solo 2 over Rhy. Fig 7]
[Rhy. Fig 1] (2x)

[Rhy. Fig 2]
And when I think of all the things you'll never know
There's so much left to say
'Cause girl, now I see the price of losing you
[Riff 1]
Will be my hell to pay
[Rhy. Fig 4 w/ Rhy. Fig 5]
My hell to pay
Each and every day
Hear what I say

[Rhy. Fig 6a]
I still love you
I still love you
[Rhy. Fig 6c]
I really, I really love you
I still love you Baby, baby
[Rhy. Fig 6b]
I love you
I love you
[Rhy. Fig 6c w/ Solo 3]
I really, I really love you

[Rhy. Fig 6b]
[Rhy. Fig 6c]
(fade out)

Suggest correction
comments
print report bad tab
4 comments total. Showing first comments.
0 reply
griNyoff 51 Jun 29, 2010 07:02 AM

I don't even know these chords...

0 reply
redkingd 10 May 01, 2011 09:31 AM

i like it!

0 reply
swave75 382 Dec 27, 2013 10:23 PM

Well done!!!

guest
You may want to rate the tab now too:
select rating
Wanna post a correction for this tab? Suggest correction