Oops, an error
Loading. Please wait.

I Stole Your Love tab

version 1
version 1

Whole song

Interactive

by KISS
25,210 views 42 this week
1 commentread comment
1 2 3 4 5
x 9
add to favorites
×
Save as Personal and add changes to this tab that will be seen only by you. Learn more ›
×
You can save this tab as Personal to edit and correct it or add notes. All changes will be seen only by you. Learn more »
launch autoscroll
font size
0
reset
how to read this tab
guitar tuner
backing track
0:00
0:00
edit
Autoscroll
slow
fast
+/-
esc
set tempo
stop
Author
I Stole Your Love
KISS
From The CD: Love Gun 
Tuned down 1/2 step

Listen To The Song, These are just the riffs.


                                   <--------------INTRO ONLY------------------->
   Gtr.1
eb|-------------------------------|--------------------------------------------|
Bb|-------------------------------|---------------------------4----------------|
Gb|-6--6p4-----4---6p4-----4--9---|-6--6p4----4---6p4------2--4----------------|
Db|-6--6p4--6--4---6p4--6--4--9---|-6--6p4--6-4---6p4--6---2--4----------------|
Ab|---------6-----------6---------|---------6----------6-----------------------|
Eb|-------------------------------|--------------------------------------------|
  |                                                                            | x4
  |Gtr.2                                                                       |
eb|----------------------------------------------------------------------------|
Bb|----------------------------------------------------------------------------|
Gb|-6~-------------------------------------------------------------------------|
Db|-6~-------------------------------------------------------------------------|
Ab|-4~-------------------------------------------------------------------------|
Eb|----------------------------------------------------------------------------|



Gtr. 1&2
eb|---------------------------------------------------------------------------|
Bb|---------------------------------------------------------------------------|
Gb|---------------------------------------------------------------------------|
Db|-9~-------11--------11-----------------------------------------------------|
Ab|-7~--------9----9----9-----------------------------------------------------|
Eb|----------------7----------------------------------------------------------|

eb|---------------------------------------------------------------------------|
Bb|---------------4-----------------------------------------------------------|
Gb|-2-------------4-----------------------------------------------------------|
Db|-2-------------4-----------------------------------------------------------|
Ab|-0-------------2-----------------------------------------------------------|
Eb|---------------------------------------------------------------------------|

eb|---------------------------------------------------------------------------|
Bb|---------------------------------------------------------------------------|
Gb|-2--4p2----2---6p4----4----------------------------------------------------|
Db|-2--2-2--4-2---4-4--6-4----------------------------------------------------|
Ab|-0-------------------------------------------------------------------------|
Eb|---------------------------------------------------------------------------|

Solo

Guitar 1
eb|---------------------------------------------------------------------------|
Bb|---------------------------------------------------------------------------|
Gb|-(6b^)-6b^--4h6----------------------------------------1--1/4~-------------|
Db|------------2--4/6\4-2-----------2h4p2\1--6p4-6p4--6-----------------------|
Ab|------------------------6-4-2p4--------------------------------------------|
Eb|---------------------------------------------------------------------------|

Guitar 2
eb|----------------------------------9----------------------------------------|
Bb|-11b-11b--9b-r9----------9------9-9----12-12p9h12----9-12b-12b-------------|
Gb|-----------------11-9-11----11b-------------------11-----------------------|
Db|---------------------------------------------------------------------------|
Ab|---------------------------------------------------------------------------|
Eb|---------------------------------------------------------------------------|


Eb|---------------------------------------------------12p11p9--12p11p9----|
Bb|-------------------------------------9h12p9h12-----------------------------|
Gb|------------------------9h11p9h11------------------------------------------|
Db|-------------9h11p9h11-----------------------------------------------------|
Ab|--9h11p9h11----------------------------------------------------------------|
Eb|---------------------------------------------------------------------------|


Eb|--12b--12--9---------------19\---------------------------------------------|
Bb|--------------12b--12--9---19\---------------------------------------------|
Gb|---------------------------------------------------------------------------|
Db|---------------------------------------------------------------------------|
Ab|---------------------------------------------------------------------------|
Eb|---------------------------------------------------------------------------|

            
            
Suggest correction
Creating personal tab
Creating personal tab
You can edit any tab online and save it as your Personal.

You can edit, replace or remove any tab part or add personal notes – all changes will be seen only by you.

Personal tabs can be accessed anytime from any device, even offline.
Learn more »
comments
print report bad tab
1 comment total.
0 reply
jd3v3n3y 51 May 06, 2013 06:58 PM

Great tab, 5 stars! I play the intro a bit different, though. It's the same notes, just different frets, so I thought I'd share for those who might think it's easier.

eb|-------------------------------|--------------------------------------------|
Bb|---------------------------5---|---------------------------4----------------|
Gb|-6--6p4-----4---6p4-----4--4---|-6--6p4----4---6p4---------4----------------|
Db|-6--6p4--6--4---6p4--6--4------|-6--6p4--6-4---6p4--6---7--4----------------|
Ab|---------6-----------6---------|---------6----------6---7-------------------|
Eb|-------------------------------|--------------------------------------------|

guest
You may want to rate the tab now too:
select rating
Wanna post a correction for this tab? Suggest correction