Oops, an error
Loading. Please wait.

Im An Animal tab

version 2
version 2

Whole song

Interactive

by KISS
97 views 1 this week
no commentswrite comment
1 2 3 4 5
2 more votes to show rating
add to favorites
×
Save as Personal and add changes to this tab that will be seen only by you. Learn more ›
×
You can save this tab as Personal to edit and correct it or add notes. All changes will be seen only by you. Learn more »
launch autoscroll
font size
0
reset
how to read this tab
guitar tuner
edit
Autoscroll
slow
fast
+/-
esc
set tempo
stop
---------------------------------------------------------------------------------------------------------------
                                             I'M AN ANIMAL - KISS
---------------------------------------------------------------------------------------------------------------

Tuning: Half-Step Down (D# G# C# F# A# D#)

Stuff To Know:
~ - vibrato
b - bend
p - pull off
PM - palm mute where the dots are
/ - slide up
\ - slide down

If you feel there's something wrong with the tab just hit me up in comments below :)
Good Luck!

Intro/Chorus
eb|---------------------------------------------------------------------|
Bb|---------------------------------------------------------------------|
Gb|----------7-8-9~--------12--11--10-----------------------------------|
Db|---5-6-7--7-8-9~----2----x---x---x----2------------------------------|
Ab|---5-6-7--5-6-7~----2---10~--9~--8~---2---7-5-7-5--------------------|
Eb|---3-4-5------------0-----------------0-----------7\5-3-3-0-3-5~-----|

eb|-------------------------------------------|
Bb|-------------------------------------------|
Gb|-------12--11--12--------------------------|
Db|---2----x---x---x----2-----------5-6-7-----|
Ab|---2---10~--9~--8~---2-----------5-6-7-----|
Eb|---0-----------------0--/slide\--3-4-5-----| (/slide\ - you can do 3/14\3)

eb|----------------------------------------------------|
Bb|----------------------------------------------------|
Gb|-------12--11--10-----------------------------------|
Db|---2----x---x---x----2------------------------------|
Ab|---2---10~--9~--8~---2---7-5-7-5--------------------|
Eb|---0-----------------0-----------7\5-3-3-0-3-5~-----|

eb|--------------------------------------|
Bb|--------------------------------------|
Gb|-------12--11--10-----------7-8-9-----|
Db|---2----x---x---x----5-6-7--7-8-9-----|
Ab|---2---10~--9~--8~---5-6-7--5-6-7-----|
Eb|---0-----------------3-4-5------------|

Verse [x2]
PM   .....          .....         .....
eb|----------------------------------------------------------|
Bb|----------------------------------------------------------|
Gb|------------------------7/9~------------------------------|
Db|--2-2-2----------2-2-2--7/9~---2-2-2---------5--4/5\4-----|
Ab|--2-2-2--0-1~----2-2-2--5/7~---2-2-2--0-1~---5--4/5\4-----|
Eb|--0-0-0----------0-0-0---------0-0-0---------3--2/3\2-----|

PM   .....          .....         .....
eb|--------------------------------------------------------|
Bb|--------------------------------------------------------|
Gb|------------------------7/9~----------------------------|
Db|--2-2-2----------2-2-2--7/9~---2-2-2---------5--5/7-----|
Ab|--2-2-2--0-1~----2-2-2--5/7~---2-2-2--0-1~---5--5/7-----|
Eb|--0-0-0----------0-0-0---------0-0-0---------3--3/5-----| [Repeat Verse x1 more time]

Bridge
eb|----------------------------------------------------------------------------------------|
Bb|----------------------------------------------------------------------------------------|
Gb|----------------------------------------------------------------------------------------|
Db|---9-9-9-9-9-9-9-9---7-7-7-7-7-7-7-7---10-10-10-10-10-10-10-10---12-12-12-12-12-12\-----|
Ab|---9-9-9-9-9-9-9-9---7-7-7-7-7-7-7-7---10-10-10-10-10-10-10-10---12-12-12-12-12-12\-----|
Eb|---7-7-7-7-7-7-7-7---5-5-5-5-5-5-5-5---8--8--8--8--8--8--8--8----10-10-10-10-10-10\-----|

Chorus
eb|----------------------------------------------------|
Bb|----------------------------------------------------|
Gb|-------12--11--10-----------------------------------|
Db|---2----x---x---x----2------------------------------|
Ab|---2---10~--9~--8~---2---7-5-7-5--------------------|
Eb|---0-----------------0-----------7\5-3-3-0-3-5~-----|

eb|-------------------------------------------|
Bb|-------------------------------------------|
Gb|-------12--11--12--------------------------|
Db|---2----x---x---x----2-----------5-6-7-----|
Ab|---2---10~--9~--8~---2-----------5-6-7-----|
Eb|---0-----------------0--/slide\--3-4-5-----|

eb|----------------------------------------------------|
Bb|----------------------------------------------------|
Gb|-------12--11--10-----------------------------------|
Db|---2----x---x---x----2------------------------------|
Ab|---2---10~--9~--8~---2---7-5-7-5--------------------|
Eb|---0-----------------0-----------7\5-3-3-0-3-5~-----|

eb|--------------------------------------|
Bb|--------------------------------------|
Gb|-------12--11--10-----------7-8-9-----|
Db|---2----x---x---x----5-6-7--7-8-9-----|
Ab|---2---10~--9~--8~---5-6-7--5-6-7-----|
Eb|---0-----------------3-4-5------------|

Guitar 1                                                         Guitar 2
PM   .....          .....         .....                          
eb|--------------------------------------------------------|     eb|----------------------------|
Bb|--------------------------------------------------------|     Bb|----------------------------|
Gb|------------------------7/9~----------------------------|     Gb|----------------------------|
Db|--2-2-2----------2-2-2--7/9~---2-2-2---------5--5/7-----|     Db|-------7b--7~-7-7-7-7p5-----|
Ab|--2-2-2--0-1~----2-2-2--5/7~---2-2-2--0-1~---5--5/7-----|     Ab|----------------------------|
Eb|--0-0-0----------0-0-0---------0-0-0---------3--3/5-----|     Eb|--5b------------------------|

Verse
PM   .....          .....         .....
eb|----------------------------------------------------------|
Bb|----------------------------------------------------------|
Gb|------------------------7/9~------------------------------|
Db|--2-2-2----------2-2-2--7/9~---2-2-2---------5--4/5\4-----|
Ab|--2-2-2--0-1~----2-2-2--5/7~---2-2-2--0-1~---5--4/5\4-----|
Eb|--0-0-0----------0-0-0---------0-0-0---------3--2/3\2-----|

PM   .....          .....         .....
eb|--------------------------------------------------------|
Bb|--------------------------------------------------------|
Gb|------------------------7/9~----------------------------|
Db|--2-2-2----------2-2-2--7/9~---2-2-2---------5--5/7-----|
Ab|--2-2-2--0-1~----2-2-2--5/7~---2-2-2--0-1~---5--5/7-----|
Eb|--0-0-0----------0-0-0---------0-0-0---------3--3/5-----|

Bridge
eb|----------------------------------------------------------------------------------------|
Bb|----------------------------------------------------------------------------------------|
Gb|----------------------------------------------------------------------------------------|
Db|---9-9-9-9-9-9-9-9---7-7-7-7-7-7-7-7---10-10-10-10-10-10-10-10---12-12-12-12-12-12\-----|
Ab|---9-9-9-9-9-9-9-9---7-7-7-7-7-7-7-7---10-10-10-10-10-10-10-10---12-12-12-12-12-12\-----|
Eb|---7-7-7-7-7-7-7-7---5-5-5-5-5-5-5-5---8--8--8--8--8--8--8--8----10-10-10-10-10-10\-----|

Chorus
eb|----------------------------------------------------|
Bb|----------------------------------------------------|
Gb|-------12--11--10-----------------------------------|
Db|---2----x---x---x----2------------------------------|
Ab|---2---10~--9~--8~---2---7-5-7-5--------------------|
Eb|---0-----------------0-----------7\5-3-3-0-3-5~-----|

eb|-------------------------------------------|
Bb|-------------------------------------------|
Gb|-------12--11--12--------------------------|
Db|---2----x---x---x----2-----------5-6-7-----|
Ab|---2---10~--9~--8~---2-----------5-6-7-----|
Eb|---0-----------------0--/slide\--3-4-5-----|

eb|----------------------------------------------------|
Bb|----------------------------------------------------|
Gb|-------12--11--10-----------------------------------|
Db|---2----x---x---x----2------------------------------|
Ab|---2---10~--9~--8~---2---7-5-7-5--------------------|
Eb|---0-----------------0-----------7\5-3-3-0-3-5~-----|

eb|--------------------------------------|
Bb|--------------------------------------|
Gb|-------12--11--10-----------7-8-9-----|
Db|---2----x---x---x----5-6-7--7-8-9-----|
Ab|---2---10~--9~--8~---5-6-7--5-6-7-----|
Eb|---0-----------------3-4-5------------|

Guitar 1 (play through solo) [x6]
PM   ......                         ......
eb|-----------------------------------------------------------------|
Bb|-----------------------------------------------------------------|
Gb|------------------9-7----9-7-------------------------------------|
Db|--2--2-2----------9-7----9-7-----2--2-2--------------------------|
Ab|--2--2-2---/7--------------------2--2-2---/7---7-5---------------|
Eb|--0--0-0--------0------0---------0--0-0------------7-5-7-5-3-----| [Repeat this x5 more times)

Guitar 2
Solo                          Play with Guitar 1 and then start Solo (Don't forget to PM the Em)
eb|------------|              eb|-------------------------------------------------------------------|
Bb|------------|              Bb|-------------------------------------------------------------------|
Gb|------------|              Gb|--------------------------------------------9-7----9-7-------------|
Db|------------|      OR      Db|----------------------------2--2-2----------9-7----9-7-------------|
Ab|-----7~-----|              Ab|---/7---7-5-----------------2--2-2---/7---------------------7~-----|
Eb|------------|              Eb|------------7-5-7-5-3-------0--0-0--------0------0-----------------|

eb|--12-10--------12-10--------12-10--------12-10---------12-10-----------|
Bb|--------12-10--------12-10--------12-10---------12-10--------12-10-----|
Gb|-----------------------------------------------------------------------|
Db|-----------------------------------------------------------------------|
Ab|-----------------------------------------------------------------------|
Eb|-----------------------------------------------------------------------|

eb|--12-10--------12-10--------12-10--------12-10------------------|
Bb|--------12-10--------12-10--------12-10--------12-10-12-10b-----|
Gb|----------------------------------------------------------------|
Db|----------------------------------------------------------------|
Ab|----------------------------------------------------------------|
Eb|----------------------------------------------------------------|

eb|---------------------------------------------------------12----12-15-12-15---17-15-17--19-17-19-17-19~-----|
Bb|---------------------------------------12----12-15-12-15----15---------------------------------------------|
Gb|---------------------12----12-14-12-14----14---------------------------------------------------------------|
Db|---12----12-14-12-14----14---------------------------------------------------------------------------------|
Ab|------14---------------------------------------------------------------------------------------------------|
Eb|-----------------------------------------------------------------------------------------------------------|

eb|--21^22--19-18-17--15-17-15-------21^22--19-18-17--15-17-15-18^19~-----|
Bb|----------------------------17~----------------------------------------|
Gb|-----------------------------------------------------------------------|
Db|-----------------------------------------------------------------------|
Ab|-----------------------------------------------------------------------|
Eb|-----------------------------------------------------------------------|

eb|--12-10--------12-10--------12-10---------------------|
Bb|--------12-10--------12-10---------12-11-10-8-10~-----|
Gb|------------------------------------------------------|
Db|------------------------------------------------------|
Ab|------------------------------------------------------|
Eb|------------------------------------------------------|

eb|----------------------------------------------------|
Bb|---------------------------------------14-14-14-----|
Gb|--------------------12----12-14-12-14--14-14-14-----|
Db|--12----12-14-12-14----14---------------------------|
Ab|-----14---------------------------------------------|
Eb|----------------------------------------------------|

End of Solo (Guitar 1 play with Guitar 2)
Eb|---------------|
Ab|---------------|
Db|---------------|
Gb|--14-14-14-----|
Bb|--14-14-14-----|
eb|---------------|

Guitar 1
Bridge
eb|---------------------------------------------------------------------------------------|
Bb|---------------------------------------------------------------------------------------|
Gb|---------------------------------------------------------------------------------------|
Db|---9-9-9-9-9-9-9-9---7-7-7-7-7-7-7-7---10-10-10-10-10-10-10-10---12-12-12-12-12-12-----|
Ab|---9-9-9-9-9-9-9-9---7-7-7-7-7-7-7-7---10-10-10-10-10-10-10-10---12-12-12-12-12-12-----|
Eb|---7-7-7-7-7-7-7-7---5-5-5-5-5-5-5-5---8--8--8--8--8--8--8--8----10-10-10-10-10-10-----|

Guitar 2 (play somewhere in the middle of the Bridge)
eb|-------------------------------|
Bb|-------------------------------|
Gb|-----14---16--17~------19~-----|
Db|-------------------------------|
Ab|-------------------------------|
Eb|-------------------------------|

Chorus (Pick slide - Guitar 2 then Guitar 1)
eb|----------------------------------------------------|
Bb|----------------------------------------------------|
Gb|-------12--11--10-----------------------------------|
Db|---2----x---x---x----2------------------------------|
Ab|---2---10~--9~--8~---2---7-5-7-5--------------------|
Eb|---0-----------------0-----------7\5-3-3-0-3-5~-----|

eb|-------------------------------------------|
Bb|-------------------------------------------|
Gb|-------12--11--12--------------------------|
Db|---2----x---x---x----2-----------5-6-7-----|
Ab|---2---10~--9~--8~---2-----------5-6-7-----|
Eb|---0-----------------0--/slide\--3-4-5-----|

eb|----------------------------------------------------|
Bb|----------------------------------------------------|
Gb|-------12--11--10-----------------------------------|
Db|---2----x---x---x----2------------------------------|
Ab|---2---10~--9~--8~---2---7-5-7-5--------------------|
Eb|---0-----------------0-----------7\5-3-3-0-3-5~-----|

eb|------------------------|
Bb|------------------------|
Gb|-------12--11--10-\-----|
Db|---2----x---x---x-\-----|
Ab|---2---10~--9~--8~\-----|
Eb|---0--------------------|

Outro
eb|--------------------------------------------------------------------|
Bb|--------------------------------------------------------------------|
Gb|---------7-8-9----------7-8-9----------7-8-9------------------------|
Db|--5-6-7--7-8-9---5-6-7--7-8-9---5-6-7--7-8-9-------2-2------2-2-----|
Ab|--5-6-7--5-6-7---5-6-7--5-6-7---5-6-7--5-6-7-------2-2------2-2-----|
Eb|--3-4-5----------3-4-5----------3-4-5--------------0-0------0-0-----|


The End :P

            
            
Suggest correction
Creating personal tab
Creating personal tab
You can edit any tab online and save it as your Personal.

You can edit, replace or remove any tab part or add personal notes – all changes will be seen only by you.

Personal tabs can be accessed anytime from any device, even offline.
Learn more »
Give kudos to tab author, rate the tab!
1 2 3 4 5
comments
print report bad tab
guest
You may want to rate the tab now too:
select rating
Wanna post a correction for this tab? Suggest correction