Oops, an error
Loading. Please wait.

King Of The Night Time World bass

version 2
version 2

Whole song

Interactive

by KISS
1,653 views 1 this week
no commentswrite comment
1 2 3 4 5
2 more votes to show rating
add to favorites
×
Save as Personal and add changes to this tab that will be seen only by you. Learn more ›
×
You can save this tab as Personal to edit and correct it or add notes. All changes will be seen only by you. Learn more »
launch autoscroll
font size
0
reset
guitar tuner
edit
Autoscroll
slow
fast
+/-
esc
set tempo
stop
Author
Key:
/    = slide up
\    = slide down
b    = bend (whole step)
b^   = bend (1/2 step)
b^^  = bend (1 1/2 steps)
pb   = pre-bend
r    = release-bend
t    = tap with righthand finger
h    = hammer-on
p    = pull-off
~    = Vibrato
*    = Natural Harmonic
#(#) = Trill
**   = Artificial Harmonic
x    = Dead notes (no pitch)
P.M. = Palm mute (- -> underneath indicates which notes)
(\)  = Dive w\bar
(/)  = Release w\bar
Tp   = Tap w\plectrum


Rhythm Fig. 1
                                            
Gb|----------------------------------------------|
Db|----------------------------------------------|
Ab|-------------------------------------3--------|
Eb|----------------------------------------3-----|



Rhythm Fig. 2
                                         
Gb|----------------------------------------------|
Db|----------------------------------------------|
Ab|--5--------------------------------3----------|
Eb|--------------------------------------3-------|



Rhythm Fig. 3
                                            
Gb|----------------------------------------------|
Db|----------------------------------------------|
Ab|--5----------3--------------------3-----------|
Eb|----------------5--3-----------------3--------|



Rhythm Fig. 4
                                       
Gb|----------------------------------------------|
Db|----------------------------------------------|
Ab|--5-------------------------------------------|
Eb|----------------------------------------------|



Rhythm Fig. 5
                                                 
Gb|----------------------------------------------|
Db|---------------------5----5--3----2-----------|
Ab|--5--5--3----2----0------------------5--4-----|
Eb|----------------------------------------------|


                                                 
Gb|----------------------------------------------|
Db|---------------------3----3--1----0-----------|
Ab|--3--3--1----1-----------------------3--------|
Eb|----------------3-----------------------3-----|



Rhythm Fig. 6
                                              
Gb|--------------7-------------------------------|
Db|-----------------7--5-------5-----------------|
Ab|--5----5---------------------------5----------|
Eb|--------------------------------------5-------|


                                              
Gb|----------------------------------------------|
Db|---------------------3--3--3--2----2----------|
Ab|--3----3------------------------------3-------|
Eb|----------------------------------------------|




Rhythm Fig. 7
                                              
Gb|----------------------------------------------|
Db|-----------------4--5-------5-----------------|
Ab|--5----5------7--------------------0--2-------|
Eb|----------------------------------------------|


                                             
Gb|----------------------------------------------|
Db|-----------------------3----3--2--------------|
Ab|--3----3----------------------------3---------|
Eb|---------------------------------------3------|



Rhythm Fig. 8
                                              
Gb|--------------7-------------------------------|
Db|-----------------7--5-------5-----------------|
Ab|--5----5---------------------------5--4-------|
Eb|----------------------------------------------|


                                              
Gb|----------------------------------------------|
Db|---------------------3--3--3--2---------------|
Ab|--3----3---------------------------5--3-------|
Eb|----------------------------------------------|



Rhythm Fig. 9 
                                               
Gb|-----------------------5h7---5h7---5h7--------|
Db|----------------------------------------------|
Ab|--5------------------------------------3------|
Eb|------------------------------------------3---|



Rhythm Fig. 10
                                            
Gb|------------7-------------------7-------------|
Db|----------------------------------------------|
Ab|--5--5----------------5--5--------------------|
Eb|----------------------------------------------|




Rhythm Fig. 11
                                          
Gb|-----------7------------------7---------------|
Db|----------------------------------------------|
Ab|--5------------------5------------------------|
Eb|----------------------------------------------|




Rhythm Fig. 12
                                            
Gb|-----------7------------------7---------------|
Db|----------------------------------------------|
Ab|--5------------------5-------------3----------|
Eb|--------------------------------------3-------|



Rhythm Fig. 13
                                                
Gb|----------------------------------------------|
Db|------------3--3--4--5------7----8--8--9------|
Ab|--5----7--------------------------------------|
Eb|----------------------------------------------|


                                                          
Gb|----------------------------------------------|
Db|--10---12---13-13-14-15---15-13----12---------|
Ab|---------------------------------------(3)----|
Eb|-------------------------------------------3--|


                                                
Gb|----------------------------------------------|
Db|----------------------------------------------|
Ab|--5----3----2----0----------0----1--2--1------|
Eb|--------------------3----3--------------------|


                                                 
Gb|----------------------------------------------|
Db|----------------------------------------------|
Ab|--3--3--1----0--------------------------------|
Eb|------------------3--1----1--3----4--4--5-----|



Rhythm Fig. 14
                                                 
Gb|----------------------------------------------|
Db|---------------------5----5--3----2-----------|
Ab|--5--5--3----2----0------------------5--4-----|
Eb|----------------------------------------------|


                                                  
Gb|----------------------------------------------|
Db|----------------------------------------------|
Ab|--3--3--1----1--------------------------------|
Eb|----------------3----1----1--3----4--4--5-----|
                                            



KING OF THE NIGHT TIME WORLD
Paul Stanley, Bob Ezrin, Mark Anthony, Kim Fowley

[Intro: Noise and feedback]
[Rhy. Fig 1]
[Rhy. Fig 2] (4x)
[Rhy. Fig 3] (2x)

[Rhy. Fig 4]
It's so sad, livin' at home
Far from the city and the midnight fun
It's so bad, goin' to school
So far from me and the dirty things that we do

[Rhy. Fig 1]
[Rhy. Fig 5] (2x)
I'm the king of the night time world
And you're my headlight queen
I'm the king of the night time world
Come live your secret dream

[Rhy. Fig 6]
It's so fine, lovin' with ease
Far from the house and the family fights
[Rhy. Fig 7]
It's so fine, bein' with you
Bein' with me makes everything alright

[Rhy. Fig 5] (2x)
I'm the king of the night time world
And you're my headlight queen
I'm the king of the night time world
Come live your secret dream, alright

[Rhy. Fig 2] (3x)
[Rhy. Fig 9]
[Rhy. Fig 5] (2x)

[Rhy. Fig 8]
It's so sad, you're not content
Far from the music and the neon glow
[Rhy. Fig 7]
Ain't you glad we got the time
Far from our folks, they'll never ever know

[Rhy. Fig 10] (4x)
I'm the king of the night time world
And you're my headlight queen
I'm the king of the night time world
Come live your secret dream

[Rhy. Fig 11] (3x)
I'm the king, I'm the king, I'm the king, I'm the king
I'm the king, I'm the king
[Rhy. Fig 12]
I'm the king, I'm the king

[Rhy. Fig 5] (2x)
I'm the king of the night time world
And you're my headlight queen
I'm the king of the night time world
Come live your secret dream
[Rhy. Fig 13]
I'm the king of the night time world
And you're my headlight queen
I'm the king of the night time world
Come live your secret dream
[Rhy. Fig 14]
I'm the king of the night time world
And you're my headlight queen
[Rhy. Fig 13]
I'm the king of the night time world
Come live your secret dream
I'm the king of the night time world

            
            
Suggest correction
Creating personal tab
Creating personal tab
You can edit any tab online and save it as your Personal.

You can edit, replace or remove any tab part or add personal notes – all changes will be seen only by you.

Personal tabs can be accessed anytime from any device, even offline.
Learn more »
Give kudos to tab author, rate the tab!
1 2 3 4 5
comments
print report bad tab
guest
You may want to rate the tab now too:
select rating
Wanna post a correction for this tab? Suggest correction