Oops, an error
Loading. Please wait.

Lick It Up Tab

version 1
version 1

Whole song

Interactive

79,810 views 75 this week
9 commentsread comments
1 2 3 4 5
x 19
add to favorites
launch autoscroll
font size
0
reset
how to read this tab
guitar tuner
backing track
0:00
0:00
×
Best way to learn
"Lick It Up"
Autoscroll
slow
fast
+/-
esc
set tempo
stop
Lick It Up by Kiss

This is the version of Smashes..................from Scott


e|--------------------------------------------------------------|
B|--------------------------------------------------------------|
G|2-------------------------------------------------------------|
D|2-------------------------------------------------------------|
A|0--0--0--0--0--0--0--0--0--0--0--0--0--0--0--0--0--0--0--0--0-|
E|--------------------------------------------------------------|
pm...........................................................


e|------------------------------------------------------------------------|
B|------------------------------------------3--3----------------3--3------|
G|2-----------------------------------------2--2----2-----------2--2----2-|
D|2-----------------------------------------0--0----2-----------0--0----2-|
A|0--0--0--0--0--0--0--0--0--0--0--0--0--0----------0--0--0--0----------0-|
E|------------------------------------------------------------------------|
pm.....................................              pm.....

Don't wanna wait 'til you know me better


e|------------------------------------------------------------------------|
B|------------------------------------------3--3----------------3--3------|
G|2-----------------------------------------2--2----2-----------2--2----2-|
D|2-----------------------------------------0--0----2-----------0--0----2-|
A|0--0--0--0--0--0--0--0--0--0--0--0--0--0----------0--0--0--0----------0-|
E|------------------------------------------------------------------------|
pm.....................................              pm.....
Let's just be glad for the time together

e|3-----------------------------------------------------------------------|
B|3-----------------------------------------3--3----------------3--3------|
G|0-----------------------------------------2--2----2-----------2--2----2-|
D|0-----------------------------------------0--0----2-----------0--0----2-|
A|--------------------------------------------------0--0--0--0----------0-|
E|3-----------------------------------------------------------------------|
 (let ring)                                       pm.....
Life's such a treat and it's time you taste it


e|3-----------------------------------------|
B|3-----------------------------------------|
G|0-----------------------------------------|
D|0-----------------------------------------|
A|------------------------------------------|
E|3-----------------------------------------|
 (let ring)
There ain't a reason on earth to waste it

e|------------------------------------------|
B|3--------3-------3------3-----------------|
G|2--------2-------2------2-----------------|
D|0--------0-------0------0-----------------|
A|------------------------------------------|
E|2--------2-------2------2-----------------|
   It ain't a crime to be good to yourself

  7m--MORE--(45%)m
  K
  chorus.
e|-------------------------------------------------3---------|
B|3----3--------------------3----3-----------------3---3-----|
G|2----2---2----------------2----2---2-------------0---2---2-|
D|0----0---2----------------0----0---2-------------0---0---2-|
A|---------0--0--0--0----------------0---0--0--0-----------0-|
E|-------------------------------------------------3---------|
           pm......                    pm ....
Lick it up                Lick it up
                                                (Its only right now)

e|-------------------------------------------------3---------|
B|3----3--------------------3----3-----------------3---3-----|
G|2----2---2----------------2----2---2-------------0---2---2-|
D|0----0---2----------------0----0---2-------------0---0---2-|
A|---------0--0--0--0----------------0---0--0--0-----------0-|
E|-------------------------------------------------3---------|
           pm......                    pm ....
Lick it up                Lick it up
                                                (oohhh yeah)
-------------------------------------------------3---------|
3----3--------------------3----3-----------------3---3-----|
2----2---2----------------2----2---2-------------0---2---2-|
0----0---2----------------0----0---2-------------0---0---2-|
---------0--0--0--0----------------0---0--0--0-----------0-|
-------------------------------------------------3---------|
           pm......                    pm ....
Lick it up                Lick it up
                                                (come on come on)

e|-------------------------------------------------3---------|
B|3----3--------------------3----3-----------------3---3-----|
G|2----2---2----------------2----2---2-------------0---2---2-|
D|0----0---2----------------0----0---2-------------0---0---2-|
A|---------0--0--0--0----------------0---0--0--0-----------0-|
E|-------------------------------------------------3---------|
           pm......                    pm ....
Lick it up                Lick it up

verse 2 (just like verse 1)
Don't need to wait for and invitaion
You gotta live like your on vacation
There's something sweet you can't buy with money  (lick it up lick it up)
It's all you need, so belive me honey
It ain't a crime to be good to yourself

7m--MORE--(75%)m
K
repeat chorus


  (x4)
e|-----------------------------------------------|
B|-----------------------------------------------|
G|---------------------2-------------------------|
D|4--5--5----4--5--5---2-------------------------|
A|4--5--5----4--5--5---0--0--0--0--0--0--0--0--0-|
E|2--3--3----2--3--3-----------------------------|
                        pm.....................


e|------3------------------------------------|
B|----3--------------------------------------|
G|--0---------0---2--------------------------|
D|0---------0-----2--------------------------|
A|----------------0--0--0--0--0--0--0--0--0--|
E|--------3----------------------------------|
                   pm......................

e|------3--3-----------------------------------|
B|----3------3---------------------------------|
G|--0---------0---2----------------------------|
D|0---------------2----------------------------|
A|----------------0--0--0--0--0--0--0--0--0----|
E|---------------------------------------------|
                   pm......................

e|------3------------------------------------|
B|----3--------------------------------------|
G|--0---------0---2--------------------------|
D|0---------0-----2--------------------------|
A|----------------0--0--0--0--0--0--0--0--0--|
E|--------3----------------------------------|
                   pm......................

e|------3--3---------------------------------|
B|----3------3-------------------------------|
G|--0---------0------------------------------|
D|0---------------4-----5-----7---7---7---7--|
A|----------------4-----5-----7---7---7---7--|
E|----------------2-----3-----5---5---5---5--|

repeat chorus and fade...
Suggest correction
comments
print report bad tab
9 comments total. Showing first comments.
0 reply
monkey_xxx2003 660 Mar 03, 2005 07:00 PM

not the best but i give you some credit.

0 reply
ChubbyLove 40 Jun 25, 2005 08:00 PM

works for me

-1 reply
Zippy Ragdoll 10 Jan 22, 2006 10:58 AM

its kinda wrong but whatever its just one more wrong tab on this site.

guest
You may want to rate the tab now too:
select rating
Wanna post a correction for this tab? Suggest correction