Oops, an error
Loading. Please wait.

Modern Day Delilah Tab

version 1
version 1

Whole song

Interactive

by KISS
13,480 views 6 this week
no commentswrite comment
1 2 3 4 5
1 last vote to show rating
add to favorites
launch autoscroll
font size
0
reset
how to read this tab
guitar tuner
backing track
0:00
0:00
×
Best way to learn
"Modern Day Delilah"
Autoscroll
slow
fast
+/-
esc
set tempo
stop
Author
Difficulty
Tuning
intermediate
D# G# C# F# A# D#
The song is in a half step down!

Intro:

|---------------------------------------------------------------------------|
|---------------------------------------------------------------------------|
|------------------------5--------------------7--------------------5--------|
|------------------------5--------------------7--------------------5--------|
|-10\----------5h7---5h7----7-------5h7---5h7----7-------5h7---5h7----7-----|
|-10\----0--0------------------0--0-----------------0--0-----------------0--|

|---------------------------------------------------------------------------|
|---------------------------------------------------------------------------|
|-----7-------------7-------------------------------------------------------|
|-----7-------------7-------------------------------------------------------|
|5h7----7------5h7----7-----------------------------------------------------|
|-----------0---------------------------------------------------------------|

Verse:

|---------------------------------------------------------------------------|
|---------------------------------------------------------------------------|
|-------------------------------5---------------5---------------------------|
|---5------7-7------------------5---------------5-----5-----7-7-------------|
|---5------5-5-7--------5h7-5h7---7-----5h7-5h7---7---5-----5-5-7-----------|
|---3----------5----0-0-------------0-0---------------3---------5----------|

Pre-Chorus:

|---------------------------------------------------------------------------|
|---------------------------------------------------------------------------|
|----------5-5--------------------------------------------------------------|
|-3-ring---5-5-5-ring---5555--5555------------------------------------------|
|-3-ring---3-3-5-ring---5555--5555------------------------------------------|
|-1-ring-------3-ring---3333--3333------------------------------------------|



Chorus:

|---------------------------------------------------------------------------|
|---------------------------------------------------------------------------|
|------------------------5--------------------7--------------------5--------|
|------------------------5--------------------7--------------------5--------|
|--------------5h7---5h7----7-------5h7---5h7----7-------5h7---5h7----7-----|
|--------0--0------------------0--0-----------------0--0-----------------0--|

|---------------------------------------------------------------------------|
|---------------------------------------------------------------------------|
|-----7-------------7-------------------------------------------------------|
|-----7-------------7-------------------------------------------------------|
|5h7----7------5h7----7-----------------------------------------------------|
|-----------0---------------------------------------------------------------|

Bridge:

|---------------------------------------------------------------------------|
|---------------------------------------------------------------------------|
|---------------------------------------------------------------------------|
|-9-----7-7-7------9--7-7-9--9--7-7-----7-7--9------------------------------|
|-9-----5-5-7------9--5-5-7--9--5-5-----5-5--7------------------------------|
|-7---------5------7---------7----------------------------------------------|

Solo (Rhythm plays chorus during solo)

Eb|---------------------------------------------------------|
Bb|--------------9b(Pinch)--9brp7---------------------------|
Gb|--8-8b--8-8-----------------9~---------------------------| 
Db|--8-8b--8-8----------------------------------------------|
Ab|---------------------------------------------------------|
Eb|---------------------------------------------------------|


Eb|---------------------------------------------------------|
Bb|---------------------------------------------------------|
Gb|-----------------------------------------7h9-9/14--------| 
Db|--7br-7--5h7p5-5h7p5---------5--5h7-7/9------------------|
Ab|----------------------7-5-7------------------------------|
Eb|---------------------------------------------------------|


Eb|---------------------------------------------------------|
Bb|--12--12----14--14----15--15----17------20p17------------|
Gb|--14b-14b---16b-16b---17b-17b---19b-----------19---------| 
Db|---------------------------------------------------------|
Ab|---------------------------------------(repeat above)----|
Eb|---------------------------------------------------------|


Eb|--17--17-------------------17--17------------------------|
Bb|--20b-20b--17b~-17--17h20--20b-20b--17b~-----------------|
Gb|---------------------------------------------------------| 
Db|---------------------------------------------------------|
Ab|---------------------------------------------------------|
Eb|---------------------------------------------------------|


Eb|10p9p7---------8p7p5--------6p5p3------------------------|
Bb|-------10p9p7--------8p7p5--------6p5p3---------5b-p3~---|
Gb|----------------------------------------5p4p3------------| 
Db|----------------------------------------------5----------|
Ab|---------------------------------------------------------|
Eb|---------------------------------------------------------|

Eb|------------17--17-------------------17--17--------------|
Bb|-/17 17h20--20b-20b--17b~-17--17h20--20b-20b--17b~-------|
Gb|---------------------------------------------------------| 
Db|---------------------------------------------------------|
Ab|---------------------------------------------------------|
Eb|---------------------------------------------------------|

Eb|-17--17---18--18---19--19--20b-(bend-until paul starts to sing)-|
Bb|-20b-20b--21b-21b--22b-22b--------------------------------------|
Gb|----------------------------------------------------------------| 
Db|----------------------------------------------------------------|
Ab|----------------------------------------------------------------|
Eb|----------------------------------------------------------------|


Then you play the chorus as the outro!

ENJOY PLAYING!


Suggest correction
Give kudos to tab author, rate the tab!
1 2 3 4 5
comments
print report bad tab
guest
You may want to rate the tab now too:
select rating
Wanna post a correction for this tab? Suggest correction