Oops, an error
Loading. Please wait.

Modern Day Delilah bass

version 3
version 3

Whole song

Interactive

by KISS
25 views 1 this week
no commentswrite comment
1 2 3 4 5
3 more votes to show rating
add to favorites
×
Save as Personal and add changes to this tab that will be seen only by you. Learn more ›
×
You can save this tab as Personal to edit and correct it or add notes. All changes will be seen only by you. Learn more »
launch autoscroll
font size
0
reset
guitar tuner
backing track
0:00
0:00
edit
Autoscroll
slow
fast
+/-
esc
set tempo
stop
Song: Modern Day Delilah
Artist: KISS
Album: Sonic Boom

                    INTRO                                                        
      H.            Q        E.  E.  Q    S  S E  E     E.  E.  Q    S  S E  E   
F#||----------------------|--------------------------|--------------------------|
C#||----------------------|--------------------5-----|--------------------7-----|
G#||----------------------|----------7----5h-7----7--|----------7----5h-7----7--|
D#||---------------10\----|--0---0-------------------|--0---0-------------------|


   E.  E.  Q    S  S E  E     E  S  S E  E  E  S  S E  E     E.  E.  Q    S  S E  E   
|--------------------------|------------------------------|--------------------------|
|--------------------5-----|----------7-------------7-----|--------------------5-----|
|----------7----5h-7----7--|-----5h-7----7-----5h-7----7--|----------7----5h-7----7--|
|--0---0-------------------|--0-------------0-------------|--0---0-------------------|


   E.  E.  Q    S  S E  E     E.  E.  Q    S  S E  E     E  S  S E  E  E  S  S E  E   
|--------------------------|--------------------------|------------------------------|
|--------------------7-----|--------------------5-----|----------7-------------7-----|
|----------7----5h-7----7--|----------7----5h-7----7--|-----5h-7----7-----5h-7----7--|
|--0---0-------------------|--0---0-------------------|--0-------------0-------------|


   VERSE                                                                       
   Q     Q    Q    S S E     E.  E.  Q.      Q        E.  E.  Q    S  S E  E   
|-------------------------|------------------------|--------------------------|
|-------------------------|------------------------|--------------------5-----|
|------------------2-3-4--|--5---5-----------------|----------7----5h-7----7--|
|--3-----3----3-----------|----------5------12\----|--0---0-------------------|


   E.  E.  Q    S  S E  E     Q    Q    Q    S S E     E.  E.  Q    S  S Q      
|--------------------------|------------------------|--------------------------|
|--------------------7-----|-----------------7-5----|---------------7p-5-7\----|
|----------7----5h-7----7--|---------------------7--|--5---5-------------------|
|--0---0-------------------|--3----3----3-----------|----------5---------------|


                                                        PRE-CHORUS                       
   E.  E.  Q    S  S E  E     E.  E.  Q    S  S E  E     E          E  E  E  E  E  E  E   
|--------------------------|--------------------------|----------------------------------|
|--------------------5-----|--------------------7-----|----------------------------------|
|----------7----5h-7----7--|----------7----5h-7----7--|----------------------------------|
|--0---0-------------------|--0---0-------------------|--1----------1--1--1--1--1--1--1--|


   Q    S   Q     E.  S E.     Q    Q    S S Q    S S    S S S S E  S S S S E   Q      
|---------------------------|-------------------------|-------------------------------|
|---------------------------|---------------------2-3-|--5-5-5-5----5-5-5-5-----------|
|-----------------------3---|------------2-3-5--------|-------------------------------|
|--1----1/-13\--------1-----|--3----3-----------------|------------------------10\----|


  CHORUS                                                                            
   E.     E.  Q    S  S E  E     E.  E.  Q    S  S E  E     E.  E.  Q    S  S E  E   
|-----------------------------|--------------------------|--------------------------|
|-----------------------5-----|--------------------7-----|--------------------5-----|
|-------------7----5h-7----7--|----------7----5h-7----7--|----------7----5h-7----7--|
|--0------0-------------------|--0---0-------------------|--0---0-------------------|


   E  S  S E  E  E  S  S E  E     E.  E.  Q    S  S E  E     E.  E.  Q    S  S E  E   
|------------------------------|--------------------------|--------------------------|
|----------7-------------7-----|--------------------5-----|--------------------7-----|
|-----5h-7----7-----5h-7----7--|----------7----5h-7----7--|----------7----5h-7----7--|
|--0-------------0-------------|--0---0-------------------|--0---0-------------------|


                                                            VERSE                   
   E.  E.  Q    S  S E  E     E  S  S E  E  E  S  S E  E     Q     Q    Q    S S E   
|--------------------------|------------------------------|-------------------------|
|--------------------5-----|----------7-------------7-----|------------------7-5----|
|----------7----5h-7----7--|-----5h-7----7-----5h-7----7--|----------------------7--|
|--0---0-------------------|--0-------------0-------------|--3-----3----3-----------|


   E.  E.  Q    S  S Q        E.  E.  Q    S  S E  E     E.  E.  Q    S  S E  E   
|--------------------------|--------------------------|--------------------------|
|---------------7p-5-7\----|--------------------5-----|--------------------7-----|
|--5---5-------------------|----------7----5h-7----7--|----------7----5h-7----7--|
|----------5---------------|--0---0-------------------|--0---0-------------------|


   Q    Q    Q    Q       E.  E.  Q.       Q        E.  E.  Q    S  S E  E   
|----------------------|----------7/------14\----|--------------------------|
|----------------------|-------------------------|--------------------5-----|
|----------------------|--5---5------------------|----------7----5h-7----7--|
|--3----3----3----3----|-------------------------|--0---0-------------------|


                              PRE-CHORUS                                             
   E.  E.  Q    S  S E  E     Q          Q    Q    Q       Q    S   Q     E.  S E.   
|--------------------------|----------------------------|---------------------------|
|--------------------7-----|----------------------------|---------------------------|
|----------7----5h-7----7--|----------------------------|-----------------------3---|
|--0---0-------------------|--1----------1----1----1----|--1----1/-13\--------1-----|


                                                             CHORUS                      
   Q    Q    S S Q    S S    S S S S E  S S S S E   Q        E.     E.  Q    S  S E  E   
|-------------------------|-------------------------------|-----------------------------|
|---------------------2-3-|--5-5-5-5----5-5-5-5-----------|-----------------------5-----|
|------------2-3-5--------|-------------------------------|-------------7----5h-7----7--|
|--3----3-----------------|---------------------0--10\----|--0------0-------------------|


   E.  E.  Q    S  S E  E     E.  E.  Q    S  S E  E     E  S  S E  E  E  S  S E  E   
|--------------------------|--------------------------|------------------------------|
|--------------------7-----|--------------------5-----|----------7-------------7-----|
|----------7----5h-7----7--|----------7----5h-7----7--|-----5h-7----7-----5h-7----7--|
|--0---0-------------------|--0---0-------------------|--0-------------0-------------|


   E.  E.  Q    S  S E  E     E.  E.  Q    S  S E  E     E.  E.  Q    S  S E  E   
|--------------------------|--------------------------|--------------------------|
|--------------------5-----|--------------------7-----|--------------------5-----|
|----------7----5h-7----7--|----------7----5h-7----7--|----------7----5h-7----7--|
|--0---0-------------------|--0---0-------------------|--0---0-------------------|


                                  BRIDGE                                              
   E  S  S E  E  E  S  S E  E     Q      Q    Q    S S E     E.  E.  Q    S  S Q      
|------------------------------|-------------------4------|--------------------------|
|----------7-------------7-----|---------------------4----|--------------------7\----|
|-----5h-7----7-----5h-7----7--|--2------2----2--------2--|--5---5--------7h-9-------|
|--0-------------0-------------|--------------------------|----------5---------------|


   Q    Q    S S E  S S E     E.  E.  Q.       Q        Q    Q    S S E  S S E   
|--------------------------|-------------------------|--------------------------|
|--------------------------|-------------------------|-------------------5-6-7--|
|--2----2----2-2-2--2-2-0--|--5---5---7------/14\----|--2----2----5-6-7---------|
|--------------------------|-------------------------|--------------------------|


                                                     SOLO                      
   E.  E.  Q.      Q       E.  Q     Q.      E.      E.   E.  Q    S  S E  E   
|-----------------------|-----------/7------------|---------------------------|
|-----------------------|-------------------------|---------------------5-----|
|--5---5----------------|--5---5------------------|-----------7----5h-7----7--|
|----------5------------|-------------------10\---|--0----0-------------------|


   E.  E.  Q    S  S E  E     E.  E.  Q    S  S E  E      E  E  S S E  Q    Q      
|--------------------------|--------------------------|------7--9-7----7----------|
|--------------------7-----|--------------------5-----|--/9---------9-------9\----|
|----------7----5h-7----7--|----------7----5h-7----7--|---------------------------|
|--0---0-------------------|--0---0-------------------|---------------------------|


   E.  E.  Q    S  S E  E     E.  E.  Q    S  S E  E     E.  E.  Q    S  S E  E   
|--------------------------|--------------------------|--------------------------|
|--------------------5-----|--------------------7-----|--------------------5-----|
|----------7----5h-7----7--|----------7----5h-7----7--|----------7----5h-7----7--|
|--0---0-------------------|--0---0-------------------|--0---0-------------------|


   E  S  S E  E  E  S  S E  E     E.  E.  Q    S  S E  E     E.  E.  Q    S  S E  E   
|------------------------------|--------------------------|--------------------------|
|----------7-------------7-----|--------------------5-----|--------------------7-----|
|-----5h-7----7-----5h-7----7--|----------7----5h-7----7--|----------7----5h-7----7--|
|--0-------------0-------------|--0---0-------------------|--0---0-------------------|


   E.  E.  Q    S  S E  E     E  S  S E  E  E  S  S E  E     E.  E.  Q    S  S E  E   
|--------------------------|------------------------------|--------------------------|
|--------------------5-----|----------7-------------7-----|--------------------5-----|
|----------7----5h-7----7--|-----5h-7----7-----5h-7----7--|----------7----5h-7----7--|
|--0---0-------------------|--0-------------0-------------|--0---0-------------------|


   E.  E.  Q    S  S E  E     E.  E.  Q    S  S E  E     E  S  S E  E  E  S  S E  E   
|--------------------------|--------------------------|------------------------------|
|--------------------7-----|--------------------5-----|----------7-------------7-----|
|----------7----5h-7----7--|----------7----5h-7----7--|-----5h-7----7-----5h-7----7--|
|--0---0-------------------|--0---0-------------------|--0-------------0-------------|


   E  E  E  E  E  E  E  E     E  E  E.    E   S E  S E.     Q    Q    S S Q    S S  
|--------------------------|-----------------------------|-------------------------|
|--------------------------|-----------------------------|---------------------5-6-|
|--------------------------|-----------------------5-5---|------------5-6-7--------|
|--3--3--3--3--3--3--3--3--|--3--3--3---/12\----3--------|--5----5-----------------|


   S S S S E  S S S S E  Q                H        E  E    Q      
|------------------------------|-------|-------------------------|
|--7-7-7-7----7-7-7-7----7\----|-------|-------------------------|
|------------------------------|-------|-------------------------|
|------------------------------|-------|--------------5--/12\----|


   CHORUS                                                                            
   E.     E.  Q    S  S E  E     E.  E.  Q    S  S E  E     E.  E.  Q    S  S E  E   
|-----------------------------|--------------------------|--------------------------|
|-----------------------5-----|--------------------7-----|--------------------5-----|
|-------------7----5h-7----7--|----------7----5h-7----7--|----------7----5h-7----7--|
|--0------0-------------------|--0---0-------------------|--0---0-------------------|


   E  S  S E  E  E  S  S E  E     E.  E.  Q    S  S E  E     E.  E.  Q    S  S E  E   
|------------------------------|--------------------------|--------------------------|
|----------7-------------7-----|--------------------5-----|--------------------7-----|
|-----5h-7----7-----5h-7----7--|----------7----5h-7----7--|----------7----5h-7----7--|
|--0-------------0-------------|--0---0-------------------|--0---0-------------------|


   E.  E.  Q    S  S E  E     E  S  S E  E  S E.  S E.     E.  E.  Q    S  S E  E   
|--------------------------|----------------------------|--------------------------|
|--------------------5-----|----------7-----------------|--------------------5-----|
|----------7----5h-7----7--|-----5h-7----7--5-5---------|----------7----5h-7----7--|
|--0---0-------------------|--0-------------------5-5---|--0---0-------------------|


   E.  E.  Q    S  S E  E     E.  E.  Q    S  S E  E     E  S  S E  E  S E.  S   E.   
|--------------------------|--------------------------|------------------------------|
|--------------------7-----|--------------------5-----|----------7-------------------|
|----------7----5h-7----7--|----------7----5h-7----7--|-----5h-7----7--5-5-----------|
|--0---0-------------------|--0---0-------------------|--0-------------------5/-12---|


   E.  E.  Q    S  S E  E     E.  E.  Q    S  S E  E     E.  E.  Q    S  S E  E   
|--------------------------|--------------------------|--------------------------|
|--------------------5-----|--------------------7-----|--------------------5-----|
|----------7----5h-7----7--|----------7----5h-7----7--|----------7----5h-7----7--|
|--0---0-------------------|--0---0-------------------|--0---0-------------------|


   E  S  S E  E  S E.  S E.     S S S S H.                                            
|----------------------------|-----------------------|-------|-------|-------|-------|
|----------7-----------------|-----------------------|-------|-------|-------|-------|
|-----5h-7----7--5-5---------|-----------------------|-------|-------|-------|-------|
|--0-------------------5-5---|--0-0-0-0--------------|-------|-------|-------|-------|


Duration Legend
---------------
W - whole
H - half
Q - quarter
E - 8th
S - 16th
T - 32nd
X - 64th
. - note dotted
|-n-|  - n-tuplets

************************************

| h   Hammer-on
| p   Pull-off
| /   Slide up
| \   Slide down

************************************

            
            
Suggest correction
Creating personal tab
Creating personal tab
You can edit any tab online and save it as your Personal.

You can edit, replace or remove any tab part or add personal notes – all changes will be seen only by you.

Personal tabs can be accessed anytime from any device, even offline.
Learn more »
Give kudos to tab author, rate the tab!
1 2 3 4 5
comments
print report bad tab
guest
You may want to rate the tab now too:
select rating
Wanna post a correction for this tab? Suggest correction